Oops, an error
Loading. Please wait.

Canon In C tab

version 1
version 1

Whole song

Interactive

79,118 views 159 this week
5 commentsread comments
1 2 3 4 5
x 8
add to favorites
×
Save as Personal and add changes to this tab that will be seen only by you. Learn more ›
×
You can save this tab as Personal to edit and correct it or add notes. All changes will be seen only by you. Learn more »
launch autoscroll
font size
0
reset
how to read this tab
guitar tuner
edit
Autoscroll
slow
fast
+/-
esc
set tempo
stop
Author
Difficulty
e|-0------------------------------|--------------------------------|
B|-1---------------3-------------1|-----------------0--------------|
G|-0-------0-------0-------0------|---------2---------------0------|
D|-----2-------2-------0-------0--|-----2-------2-------2-----2----|
A|-3-----------------------------0|--------------------------------|
E|-----------------3--------------|-----------------0--------------|

e|--------------------------------|--------------------------------|
B|--------------------------------|-----------------0--------------|
G|-2-----2---------0-----0-------2|---------2---------------0------|
D|---3---------3-----2-------2----|-----3-------3-------0-------0--|
A|-----------------3--------------|--------------------------------|
E|-1-----------------------------1|-----------------3--------------|

e|-0------------------------------|--------------------------------|
B|-1---------------3-------------1|-----------------0--------------|
G|-0-------0-------0-------0------|---------2---------------0------|
D|-----2-------2-------0-------0--|-----2-------2-------2-----2----|
A|-3-----------------------------0|--------------------------------|
E|-----------------3--------------|-----------------0--------------|

e|--------------------------------|-------------------------------0|
B|--------------------------------|-----------------0-------------1|
G|-2-----2---------0-----0-------2|---------2---------------0------|
D|---3---------3-----2-------2----|-----3-------3-------0-------0--|
A|-----------------3--------------|--------------------------------|
E|-1-----------------------------1|-----------------3--------------|

e|--------------------------------|--------------------------------|
B|---------------3----------------|-1---------------0--------------|
G|-0-------0-----------0-----0----|-2---2-------2---0---0-----0----|
D|-----2-----2-----------3--------|-2-----2-----------------0------|
A|-3------------------------------|-0------------------------------|
E|-----------------3--------------|-----------------0--------------|

e|--------------------------------|--------------------------------|
B|--------------------------------|---------------0---------------1|
G|-2-------2-------0---------0---2|-------2-----------0-------0---0|
D|-----3-------3-------2-2--------|-----3-------3---------3-------2|
A|-----------------3--------------|--------------------------------|
E|-1-----------------------------1|---------------3----------------|

e|--------------------------------|-------0---------3-------5------|
B|-----------------0--------------|-1-------1-------5-------3------|
G|-----0---------------0----------|-2---------------4---4-------4--|
D|-------------------------3------|-2---2-----2--------------------|
A|-3-------3----------------------|-0------------------------------|
E|-----------------3--------------|-----------------0--------------|

e|-1-------1-------0--------------|--------------------------------|
B|-1-------1-------1-------------3|-------1---------1-------1---0--|
G|-2---------------0---0-------0-2|-------2---------0-------0---0--|
D|-----3-------3-----------2------|-3-3---------3---0---0-0-----0--|
A|-----------------3--------------|--------------------------------|
E|-1------------------------------|-1---------------3--------------|

e|--------------------------------|-------0-------3-------5--------|
B|-1---0---1---------------0------|-1-----1---------5-----3--------|
G|-0---0---0-------0-------0------|-2-------------4-----4-----4---2|
D|-2---2---2---2-0-----0-------0--|---2---------2------------------|
A|-3------------------------------|-0------------------------------|
E|-----------------3--------------|-----------------0-------------1|

e|-1---0-------1---0--------------|--------------------------------|
B|-1-------3-------1-3-----1---0--|-------1-------1-------1---0---1|
G|-----------------0-------------2|-------2-------0-------0---0---0|
D|-------------------------------3|-----3-------3---0---0-0---0---2|
A|-----------------3--------------|--------------------------------|
E|--------------------------------|-1---------------3--------------|

e|--------------------------------|-------0---------3-----3---5----|
B|-----0---1-------------0-------1|-------1---------5-------5-5----|
G|---0-----0-----0----------------|-2-------------4-----4---4-4---2|
D|---2---------2-------0-------0-2|-----2-------2------------------|
A|-3------------------------------|-0------------------------------|
E|-----------------3--------------|-----------------0-------------1|

e|-1---0-------1---0--------------|--------------------------------|
B|-1-------3-------1-3-----1---0--|-------------1---1-------1---0--|
G|-----------------0--------------|-2-0-------------0-------0---0--|
D|-------------------------------3|---------3-----0-----0----------|
A|-----------------3--------------|--------------------------------|
E|-------------------------------1|-----------------3--------------|

e|-0-----0---------------0-0------|--------------------------------|
B|-1-----1---1-3-----3---3-3-3----|-3-----1-----0-1-0--------------|
G|-0-------0-0-0-----0---0-0-0----|-2-------------------0-----0----|
D|-----2-----2-0-----0-------0----|-2---2-----------------2--------|
A|-3------------------------------|-0------------------------------|
E|---------------3----------------|-----------------0--------------|

e|--------------------------------|--------------------------------|
B|-------0---1--------------------|-------------1-3-1-----0-----1-3|
G|-2-----2---2---2-0-------0------|-2---------2--------------------|
D|-----3-------3-------2-------2--|-----3---3-----------0-----0----|
A|-----------------3--------------|--------------------------------|
E|-1------------------------------|-1---------------3--------------|

e|-0-------0-------------0-0------|--------------------------------|
B|-1-------1-3-1-3-------3-3-3---3|-----1-----0-1---0--------------|
G|-0-------0-0-0-----------------2|-----------2-2---0-0-------0----|
D|-----2-----2-0-----0-----------2|---2-----2-------------2--------|
A|-3-----------0-----------------0|--------------------------------|
E|-----------------3--------------|-----------------0--------------|

e|-----------1-----0--------------|-------------------------------3|
B|-------1---------1-3-1----------|-----------1-3-0-----1-----3---1|
G|-2-----2---------0-0-----0------|-----------2---------0-----0---0|
D|-----3-------3-----2-------2---3|---------3-----0---0-----0------|
A|-------------------3------------|-------------------------------3|
E|-1-----------------------------1|-----1---------3----------------|

e|---0-1-3---0-1-3-----------0-1-0|-------0------------------------|
B|---1---1---1---0-----0-1-3-----1|---1-3-1-------------------1---1|
G|---0-0-0---0-0-0-0-2-----------2|---2-2-2-------0---2-----0-----2|
D|--------------------------------|---2-2-----2-3---------3-------3|
A|-------------------------------0|--------------------------------|
E|---------------3----------------|---------------0----------------|

e|--------------------------------|---------------------------0-3-3|
B|-----1-0-----------------1-0-1--|-----1---1---0---0---0-3-------1|
G|---------2---0---0-----0--------|-2-----------------2-----------0|
D|---------------3-2-3---3--------|-3------------------------------|
A|-----------------3--------------|-------------------------------3|
E|-1------------------------------|-1-------------3----------------|

e|---0-1-3---0-1-3-----------0-1-0|-------0------------------------|
B|---1---1---1---0-----0-1-3-----1|---1-3-1-------------------1---1|
G|---0-0-0---0-0-0-0-2-----------2|---2-2-2-------0---2-----0-----2|
D|--------------------------------|---2-2-----2-3---------3-------3|
A|-------------------------------0|--------------------------------|
E|---------------3----------------|---------------0----------------|

e|--------------------------------|---------------------------0-3-3|
B|-----1-0-----------------1-0-1--|-----1---1---0---0---0-3-------1|
G|---------2---0---0-----0--------|-2-----------------2-----------0|
D|---------------3-2-3---3--------|-3------------------------------|
A|-----------------3--------------|-------------------------------3|
E|-1------------------------------|-1-------------3----------------|

e|---0-1-3---0-1-3-----------0-1-0|-------0------------------------|
B|---1---1---1---0-----0-1-3-----1|---1-3-1-------------------1---1|
G|---0-0-0---0-0-0-0-2-----------2|---2-2-2-------0---2-----0-----2|
D|--------------------------------|---2-2-----2-3---------3-------3|
A|-------------------------------0|--------------------------------|
E|---------------3----------------|---------------0----------------|

e|--------------------------------|--------------------------------|
B|-----1-0-----------------1-0-1--|---1-0-1---0---0-1-3-1-0-1---0--|
G|---------2---0---0-----0--------|-2-----------2-0-----------2----|
D|---------------3-2-3---3--------|-3-------------0----------------|
A|-----------------3--------------|--------------------------------|
E|-1------------------------------|-1-------------3----------------|

e|--------------------------------|-----------------------------0--|
B|-1-----------1---------------0--|-------------1-----------0------|
G|-0-------0---------------0------|---------2-----------0----------|
D|-----2---------------0----------|-----2--------------------------|
A|-3------------------------------|-0------------------------------|
E|-----------------3--------------|-----------------0--------------|

e|-------------1---------------0--|-------------1---------------3--|
B|---------1---------------1------|---------1---------------0------|
G|-----2---------------0----------|-----2---------------0----------|
D|--------------------------------|--------------------------------|
A|-----------------3--------------|--------------------------------|
E|-1------------------------------|-1---------------3--------------|

e|--------------------------------|--------------------------------|
B|---1----------------------------|--------------------------------|
G|-0------------------------------|--------------------------------|
D|-2------------------------------|--------------------------------|
A|-3------------------------------|--------------------------------|
E|--------------------------------|--------------------------------|
Suggest correction
Creating personal tab
Creating personal tab
You can edit any tab online and save it as your Personal.

You can edit, replace or remove any tab part or add personal notes – all changes will be seen only by you.

Personal tabs can be accessed anytime from any device, even offline.
Learn more »
comments
print report bad tab
5 comments total. Showing first comments.
0 reply
rockclimber26 10 Feb 02, 2015 07:26 PM

Lack of formatting. Lack of accuracy. Clearly wrong. There are many errors in timing, fingering and notes. This has potential, but needs work. This song should be in 4/4 but the first note of the measure is often placed in the previous measure. Additionally, many of the chords don't line up.

0 reply
sara.j.altman 10 Jan 05, 2017 02:54 AM

I'm not very familiar with the song, but it's very pretty to play

0 reply
josephbishop121 10 Mar 10, 2017 08:57 AM

love this song so much

guest
You may want to rate the tab now too:
select rating
Wanna post a correction for this tab? Suggest correction