Oops, an error
Loading. Please wait.

Canon In D Tab

version 6
1,401,188 views 3,753 this week
63 commentsread comments
1 2 3 4 5
x 426
add to favorites
launch autoscroll
font size
0
reset
how to read this tab
guitar tuner
×
Best way to learn
"Canon In D"
Autoscroll
slow
fast
+/-
esc
set tempo
stop
Author
Difficulty
  follow
intermediate
[Section A]      
e|-------2--------|----------------|----------------|----------------|
B|-----3---------2|-------3-------2|-------0-------3|-------3-------2|
G|---2---------2--|-----4-------2--|-----0-------2--|-----4-------2--|
D|-0---------2----|---4-------4----|---0-------4----|---5-------2----|
A|---------0------|-2--------------|---------5------|---------0------|
E|----------------|---------2------|-3--------------|-3--------------|

                 
e|-2-----2-0------|----------------|----------------|----------------|
B|-----3-------2--|-3-------2------|-0--------------|-0-----0-2-----2|
G|---2-------2----|-----4-------2--|-----0---2------|-----0-------2--|
D|-0-------------2|---4---4---4---4|---0---0-----4--|---0-------2----|
A|---------0------|-2--------------|---------5-5---5|---------0------|
E|----------------|---------2------|-3--------------|-3--------------|

   
e|-2-------0------|----------------|----------------|----------------|
B|-3---3---2---2--|-3-------2------|-0--------------|-0-----0-2-----2|
G|---2-------2----|-4---4---2---2--|-0---0---2------|-0---0---2---2--|
D|-0-----0-------2|---4-------4---4|---0---0-4---4--|---0-------2----|
A|---------0------|-2-----2--------|---------5-5---5|---------0------|
E|----------------|---------2------|-3--------------|-3--------------|

                           
e|-----2---5---3--|-2-------2------|----------------|----------------|
B|-3---3---------2|-----3-------5--|-3-------3------|-3-------3---2--|
G|---2---2-----2--|-----4-------2--|-----4-------2--|-----4-------2--|
D|-0---------2----|---4---4---4----|-----5-----4---4|---5---5---2---2|
A|---------0------|-2--------------|---5---5-5---5--|---------0------|
E|----------------|---------2------|-3--------------|-3---3----------|
 
              
[Section B]          
e|----------------|-----------2-5/7|-3-2p0-3-2p0----|----------------|
B|-3-2-3----------|---3-2p0-2------|-------------3-2|-0--------------|
G|-----------2----|----------------|----------------|---2p0-----0----|
D|-0-----0-----2-4|-0--------------|---------0------|-------4-2---4p2|
A|---------0------|-2--------------|----------------|---------0------|
E|----------------|---------2------|-3--------------|-3--------------|
              
        
e|----------------|----------------|----------------|----------------|
B|----------------|----------------|----------------|-------0---0----|
G|-------0-2---2p0|---4-2---2------|-0-----0--------|-0-------2---2p0|
D|-0-2-4-----2----|-4-----5---5-4-2|---4-2---4-2-0-4|---4-2----------|
A|-5-------0------|-2--------------|---------5------|---------0------|
E|----------------|---------2------|-3--------------|-3--------------|
             
     
e|-----2---0------|---------2------|-7-------5------|-7-------5------|
B|-------3-2---2--|-3--------------|-----0-------7-5|-----0-----5----|
G|-----2-----2---0|-----4-------2--|-------0--------|-------0-----6--|
D|-0-0------------|---4---4---4---2|---0-----0-0----|---0-----------7|
A|---------0------|-2--------------|----------------|---------0------|
E|----------------|---------2------|-3--------------|-3--------------|
                                         

[Section C]       
e|-5---2-3-5---2-3-5---------0-2-3|-2-----0-2----------------------|
B|---------------------0-2-3------|-----3-------------0------------|
G|-------------------2------------|---------------0-2---2p0-2---0h2|
D|-0------------------------------|-------------4-------------4----|
A|-----------------0--------------|-2------------------------------|
E|--------------------------------|-----------------2--------------|

    
e|--------------------------------|-------------------------0-2-3-5|
B|-----0-------------------------0|-----0---0---2-3---0-2-3--------|
G|-0-----2p0-----------------0h2--|-0-----2---------2--------------|
D|-------------4p2-4-2-0-2-4------|--------------------------------|
A|-----------------5--------------|-----------------0--------------|
E|-3------------------------------|-3------------------------------|
                              
          
e|-2-----0h2---0---0-----0h2p0----|--------------------------------|
B|-----3---------3---2h3-------3p2|-3-----2h3-----------------3-2h3|
G|--------------------------------|-----4-------------0------------|
D|-0------------------------------|-------------0h2-4---4p2-4------|
A|-----------------0--------------|-2------------------------------|
E|--------------------------------|-----------------2--------------|

       
e|--------------------------------|---------------------0----------|
B|-0---3-2p0-----------------0-2h3|-0---3p2-3---2p0-2h3---3p2-3-0h2|
G|-------------2p0-2p0---0h2------|--------------------------------|
D|---------------------4----------|--------------------------------|
A|-----------------5--------------|-----------------0--------------|
E|-3------------------------------|-3------------------------------|


[Section D]         
e|-2-----0h2-------0-------0------|--------------------------------|
B|-3---3-------3---2---2h3-----2--|-3-----2h3-------2--------------|
G|-2---------------2--------------|-4---4-------4---2---2----------|
D|-0------------------------------|-4---------------4-----5p4---2--|
A|-----------------0--------------|-2------------------------------|
E|--------------------------------|-----------------2--------------|

                      
e|--------------------------------|--------------------------------|
B|-0------------------------------|-0---0--------------------------|
G|-0---0-------0---2-----------2--|-0-----2p0-----------2p0--------|
D|-0-----4p2-------4-----2h4------|-0-----------4---2-------4---2--|
A|-----------------5---5----------|-----------------0--------------|
E|-3------------------------------|-3------------------------------|
                                  
       
e|--------------------------------|-------0h2-------2--------------|
B|-----3p2-3-------------0h2------|-----3-------3---------5-3---2--|
G|-----------------2---2-------2--|--------------------------------|
D|-4-----------4------------------|-4------------------------------|
A|-5---------------0--------------|-2------------------------------|
E|--------------------------------|-----------------2--------------|
                          
            
e|---------------------2p0-----2--|-3------------------------------|
B|-0---0---0---2---3-------3------|-----3-2-0---0---------------2--|
G|-------2------------------------|-----------------2-------2---2--|
D|-----------------0--------------|---------------------2-------2--|
A|--------------------------------|-----------------0--------------|
E|-3------------------------------|-3------------------------------|
        

[Section E]           
e|-2-----2-2-3-2-0|----------------|-------0-2---0--|----------------|
B|-3-------2------|-3-----3-3-5-3-2|-0---0---3---3--|-3-1p0-1-------2|
G|-2---2---2------|-4---4---2------|-0-0-------2---2|-0-------2---2--|
D|-0-0-----2------|-4-4------------|-0-------0------|-0-------2-2----|
A|---------0------|-2--------------|----------------|---------0------|
E|----------------|---------2------|-3--------------|-3--------------|

                        
e|-------5-5-7-5-3|-2-----2-2-3-2-0|----------------|----------------|
B|-------7-7-8-7-5|-3-----3-3-5-3-2|-3-1-0-1--------|-3-1-0-1(2)----2|
G|-----7----------|-4---4----------|---------2---2--|-0-------2---2--|
D|---0------------|---4-----4------|-----------4----|-0---------2----|
A|-5-------0------|-2--------------|---------5-----5|---------0------|
E|----------------|----------------|-3--------------|-3--------------|
                                                          
          
e|-------------7----|----10--------9--|-7-------5------|-7-------5-5----|
B|-----7-10-10--10-8|-7-----7-10p7---7|-------0-------7|-----0---5---5--|
G|---7--------------|---7-------------|-----7-------7--|-------0-6-----6|
D|-0----------------|-----------------|---0-----0-0----|---0-----7------|
A|---------0--------|----------9------|----------------|---------0------|
E|------------------|-7---------------|-3--------------|-3--------------|
                       

[Outro]                                                       TR 
e|-2--------------|----------------|----------------|-0--------------------|
B|-3-----3-----2--|-3-----------1--|-0-----3-----3--|-0-0-----3p2h3p2h3p2h3|
G|-2---2-----2----|-4---4-------2--|-0---0---2-----2|-0---0---2------------|
D|-0-0-----------2|-4-4---4-------0|-0-0-------4----|-------0-2------------|
A|---------0------|-2---------0----|---------5------|---------0------------|
E|----------------|---------2------|-3--------------|-3--------------------|
                                                                
  
e|----------------|
B|-3--------------|
G|-2--------------|
D|-4--------------|
A|-5--------------|
E|----------------|


***********************************
| h   Hummer-on
| p   Pull-off
| TR  Trill
***********************************

Suggest correction
comments
print report bad tab
63 comments total. Showing first comments.
+9 reply
met_al_lica69 90 May 08, 2004 08:00 PM

best tab i seen from this song...i have seen the one in drop d it is almost like this but this is better. peace

+1 reply
met_al_lica69 90 May 08, 2004 08:00 PM

best tab i seen from this song...i have seen the one in drop d it is almost like this but this is better. peace

+2 reply
Lola 10 Jan 22, 2005 07:00 PM

love it.

guest
You may want to rate the tab now too:
select rating
Wanna post a correction for this tab? Suggest correction