Oops, an error
Loading. Please wait.

Canon In D Acoustic tab

version 8
version 8

Whole song

2,821 views 171 this week
3 commentsread comments
1 2 3 4 5
x 15
add to favorites
×
Save as Personal and add changes to this tab that will be seen only by you. Learn more ›
×
You can save this tab as Personal to edit and correct it or add notes. All changes will be seen only by you. Learn more »
launch autoscroll
font size
0
reset
how to read this tab
guitar tuner
edit
Autoscroll
slow
fast
+/-
esc
set tempo
stop
e|---0------|----------|----------|----------|----------|-------------|-----------|------------|-----------0-|
B|---1------|----3-----|-----1----|----0-----|----------|-------------|-----------|---0--------|--------1----|
G|----------|----0-----|-----2----|----0-----|----2-----|-----0-------|---2-------|---0--------|-----0-------|
D|----------|----------|----------|----------|----3-----|-----2-------|---3-------|------------|-------------|
A|---3------|----------|-----0----|----------|----------|-----3-------|-----------|------------|-3-----------|
E|----------|----3-----|----------|----0-----|----1-----|-------------|---1-------|---3--------|-------------|



e|------------------|----------------|-----------------|--------------|-----------------|--------------------|
B|--------------0---|-------------1--|-------------0---|-----------1--|-----------------|------------1-------|
G|----------0-------|---------2------|----------0------|--------2-----|--------------0--|--------2-----------|
D|------0-----------|-----2----------|-------2---------|-----3--------|----------2------|------3-------------|
A|------------------|-0--------------|-----------------|--------------|------3----------|--------------------|
E|--3---------------|----------------|--0--------------|-1------------|--0--------------|--1-----------------|




e|-----------------|---0-------0---|-------------|--------------|-----------------|-------------------------|
B|-------------0---|---------1-----|--3--------3-|--1--------1--|---0---------0---|-------------------------|
G|----------0------|------0--------|--------0----|--------2-----|---------0-------|---2-----------2---------|
D|-------0---------|---------------|-----0-------|-----2--------|------2----------|-----------3-------------|
A|-----------------|---3-----------|-------------|--0-----------|-----------------|-------3-----------------|
E|---3-------------|---------------|--3----------|--------------|---0-------------|---1---------------------|



e|----------------|--------------------|--------------||---------0-----|--3------1------|--0-----------------|
B|----------------|--------------------|--0--------0--||---1-----------|----------------|---------1----------|
G|--0----------0--|----2------------2--|--------0-----||------0-----0--|------0------0--|------2-----2-------|
D|---------2------|------------3-------|-----0--------||---------------|----------------|--------------------|
A|-----3----------|--------3-----------|--------------||---3-----------|----------------|--0-----------------|
E|--0-------------|----1---------------|--3-----------||---------------|--3-------------|--------------------|



e|---3-------5-------|--1--------------|--0--------------|----------------|---------------------|
B|-------------------|----------1------|----------1------|---------1------|--1-------0----------|
G|-------0-------0---|------2-------2--|------0-------0--|--2-------------|------0-------0------|
D|-------------------|--3--------------|-----------------|------3------3--|---------------------|
A|-------------------|-----------------|--3--------------|----------------|---------------------|
E|---0---------------|-----------------|-----------------|--1-------------|--3------------------|




e|--------------------|-----------------|--------------0--|--3-------3--5--|---1---0-------1----|
B|----1---0---1-------|--------------0--|--1---0---1------|------0---------|-----------3--------|
G|--------------------|--0-------2------|-----------------|----------------|--------------------|
D|----------------2----------0----------|-----------------|----------------|---3----------------|
A|----3---------------|-----------------|--0--------------|----------------|--------------------|
E|--------------------|--3--------------|-----------------|--0-------------|--------------------|



e|---0---------------|-----------------|-----------------|---3----0--1--3--0--1--|--3----------------0--1----|
B|-------3---1-------|--------------1--|--1-------0------|-----------------------|----------0--1--3----------|
G|---------------0---|--2---0----------|------0-------0--|-----------------------|----0--2-------------------|
D|-------------------|----------3------|-----------------|-----------------------|---------------------------|
A|---3---------------|-----------------|-----------------|---3-------------------|---------------------------|
E|-------------------|--1--------------|--3--------------|-----------------------|--3------------------------|




e|---0-------0-------|-------------------|-------------------|-------------------|--------------------------|
B|-------1-3---------|------------1-0-1--|------1-0----------|--------------0-1--|------1-0-1---0-----------|
G|-------------------|--0-2-0---0--------|--2-------2---0----|--0-------0-2------|--2-------------2---------|
D|--------------2-3--|--------3----------|--3-------------3--|----3-2-3----------|--3-----------------------|
A|---0---------------|-------------------|-------------------|-------------------|--------------------------|
E|-------------------|--0----------------|-------------------|--0----------------|--------------------------|



e|-------------------|--0------0---------|----------0--------|--------------------|-------------------------|
B|--0-1-3-1-0-1---0--|-----1-3-----3-1---|--3-0-1-3---3-1-0--|--1-----0--1--------|------------1-0-1--------|
G|--------------2----|-------------------|-------------------|------2-------------|--0-2-0---0--------------|
D|-------------------|-------------------|-------------------|---------------2-3--|--------3----------------|
A|-------------------|--3----------------|-------------------|--0-----------------|-------------------------|
E|--3----------------|-------------------|--3----------------|--------------------|--0----------------------|




e|-------------------|------------------|------------------|-------------------|--0---------0----------------|
B|------1-0----------|--------------0-1-|------1-0-1---0-2-|--0-1-3-1-0-1---0--|---------1-------------------|
G|--2-------2---0----|--0-------0-2-----|--2---------------|--------------2----|------0----------------------|
D|--3-------------3--|----3-2-3---------|--3---------------|-------------------|-----------------------------|
A|-------------------|------------------|------------------|-------------------|--3--------------------------|
E|-------------------|--0---------------|------------------|--3----------------|-----------------------------|



e|---0---1---0------|--------------|--------------|--------------|--------------|----------------------------|
B|---------------3--|--1--------1--|--1--3--1--0--|---------1----|--1-----------|---1------------------------|
G|------------------|--------2-----|--------------|--2-----------|--------0-----|-------3---2---3------------|
D|------------------|-----2--------|--------------|-----3------3-|-----2-----2--|---3------------------------|
A|------------------|--0-----------|--------------|--------------|--3-----------|----------------------------|
E|---3--------------|--------------|--0-----------|--1-----------|--------------|----------------------------|



e|----------------0-1--|--3-----------3--|--3---1---0------|--0----------0---|--0--1--0----------------------|
B|---0------0-1-3------|----------1------|--------------3--|---------1-------|-----------3-------------------|
G|------0-2------------|------0----------|-----------------|-----2-----------|-------------------------------|
D|---------------------|-----------------|-----------------|-----------------|-------------------------------|
A|---------------------|--3--------------|-----------------|--0--------------|-------------------------------|
E|---3-----------------|-----------------|--3--------------|-----------------|--0----------------------------|



e|----------------|----------------|------------------|--------------0-1-|--0----------|---------------------|
B|--1-------------|--1-------------|--1---------------|--0-----0-1-3-----|--1----------|--3------------------|
G|---------2------|---------0------|------3---2---3---|----0-2-----------|--0-----0----|--0-----0------------|
D|------3-----3---|------2-----2---|--3---------------|------------------|--------2----|--0-----0------------|
A|----------------|--3-------------|------------------|------------------|--3----------|---------------------|
E|--1-------------|----------------|------------------|--3---------------|-------------|--3------------------|



e|------------------|-------------|------------|------------|--------------|-------------|------------------|
B|---1--------------|--0----------|------------|------------|--------------|---0---------|--1---------------|
G|---2------2-------|--0----0-----|--2---------|--0---------|----2---------|---0----0----|--0---------------|
D|---2------2-------|--2----2-----|--3-----3---|--2-----2---|----3------3--|---0----0----|--2---------------|
A|---0--------------|-------------|--3-----3---|--3-----3---|----3------3--|-------------|--3---------------|
E|------------------|--0----------|--1---------|--0---------|----1---------|---3---------|------------------|

            
            
Suggest correction
Creating personal tab
Creating personal tab
You can edit any tab online and save it as your Personal.

You can edit, replace or remove any tab part or add personal notes – all changes will be seen only by you.

Personal tabs can be accessed anytime from any device, even offline.
Learn more »
comments
print report bad tab
3 comments total.
0 reply
lozboz87 10 Jul 26, 2017 02:42 AM

I love this :) I'm struggling with the pace with the faster stage of the song. I gave up a while ago but want to learn it again

+1 reply
uitham 20 Aug 05, 2017 07:34 AM

put your capo on the second fret for D btw. otherwise its canon in c

guest
Wanna post a correction for this tab? Suggest correction