Oops, an error
Loading. Please wait.

Air On A G String Tab

version 1
version 1

Whole song

24,115 views 45 this week
no commentswrite comment
1 2 3 4 5
x 4
add to favorites
launch autoscroll
font size
0
reset
how to read this tab
guitar tuner
Autoscroll
slow
fast
+/-
esc
set tempo
stop
Help us to improve Ultimate-Guitar.com Take our survey!
×
Author
Difficulty
novice
e|-2------------7---3---------------------------------------------------------|
B|-3-------------------5-3s2-3--2h3p2h3p2h3p2h3p2h3p2h3p2h3p2h3p2h3p2---p0----|
G|-2-------2p0-------------------------------------------------------------2--|
D|------0-----------0--0--------0------------------------------------------0--|
A|-4--4-----------------------------------------------------------------------|
E|----------------------------------------------------------------------------|

e|---5--5-5-2-------------------------------------5-2-3h5p3p2p0h2h3h5p3p2p0-h2-|
B|----3------3-2h3p2h3p2h3p2h3p2h3p2h3p2h3p2h3p2p0-----------------------------|
G|--2--2-----------------------------------------------------------------------|
D|-0------0-----------------------------------------0-0------------------------|
A|-----------------------------------------------------------------------------|
E|-----------------------------------------------------------------------------|

e|-2-2-3-5-------------2-2p0--------------------------------------------------|
B|---------3p2-3-3-3-5------3p2-0-2-3-2h3p2h3p2h3p2h3p2h3p2h3p2h3p2h3p2-p0----|
G|-------------------2-----------------------------------------------------2--|
D|-0-0---0-0-----------0-0--0---------0------------------------------------0--|
A|-------------0---2-4--------------------------------------------------------|
E|----------------------------------------------------------------------------|

e|----------14-14-10-----------------------------------------------------------|
B|----7---0----------12p10-10s9-10-9h10p9h10p9h10p9h10p9h10p9h10p9h10p9h10p9---|
G|----7---------------------------------------------------------------------~9-|
D|-0-----0--12-----------------------------------------------------------------|
A|----5-0----------------------------------------------------------------------|
E|--5--------------------------------------------------------------------------|

e|-------12--12-9-----------------------------12p10-10h12p10p9h10h12p10p9s7h9-|
B|-----9---10----10--9h10p9h10p9h10p9h10p9s7----------------------------------|
G|---8------------------------------------------------------------------------|
D|-0---------0----------------------------------------------------------------|
A|----------------------------------------------------------------------------|
E|----------------------------------------------------------------------------|

e|-9-9-10-10s12-------------------9-9-----------------------------------------|
B|--------------10p9-10--10-10-12-----12-10p9s7-9-10-9h10p9p--~7--------------|
G|------------------------------------9---------------------------9-----------|
D|--------------0-------------------------------------------------------------|
A|-----------------------9--9--0------11--------------------------------------|
E|----------------------------------------------------------------------------|


************************************

| h  Hammer-on
| p  Pull-off
| ~  Vibrato 

************************************
Suggest correction
comments
print report bad tab
guest
You may want to rate the tab now too:
select rating
Wanna post a correction for this tab? Suggest correction