Oops, an error
Loading. Please wait.

Air On A G String Tab

version 1
version 1

Whole song

23,674 views 24 this week
no commentswrite comment
1 2 3 4 5
x 4
add to favorites
launch autoscroll
font size
0
reset
how to read this tab
guitar tuner
Autoscroll
slow
fast
+/-
esc
set tempo
stop
Help us to improve Ultimate-Guitar.com Take our survey!
×
Author
Difficulty
novice
       Air On A G string by Johann Sebastian Bach
~~~~~~~~~~~~~~~~~~~~~~~~~~~~~~~~~~~~~~~~~~~~~~~~~~~~~~~~~~~~~~~~~~~~~~~~~~~~~

Transcription by Christer Liverhall (chrliv@kth.se)

This is my version of Bach's masterpiece "Air"

GRATTIS PÅ FÖDELSEDAGEN SIMON! Tyvärr några dagar försenad.

-2------------7---3---------------------------------------------------------|
-3-------------------5-3s2-3--2h3p2h3p2h3p2h3p2h3p2h3p2h3p2h3p2h3p2---p0----|
-2-------2p0-------------------------------------------------------------2--|
------0-----------0--0--------0------------------------------------------0--|
-4--4-----------------------------------------------------------------------|
----------------------------------------------------------------------------|

---5--5-5-2-------------------------------------5-2-3h5p3p2p0h2h3h5p3p2p0-h2-|
----3------3-2h3p2h3p2h3p2h3p2h3p2h3p2h3p2h3p2p0-----------------------------|
--2--2-----------------------------------------------------------------------|
-0------0-----------------------------------------0-0------------------------|
-----------------------------------------------------------------------------|
-----------------------------------------------------------------------------|

-2-2-3-5-------------2-2p0--------------------------------------------------|
---------3p2-3-3-3-5------3p2-0-2-3-2h3p2h3p2h3p2h3p2h3p2h3p2h3p2h3p2-p0----|
-------------------2-----------------------------------------------------2--|
-0-0---0-0-----------0-0--0---------0------------------------------------0--|
-------------0---2-4--------------------------------------------------------|
----------------------------------------------------------------------------|

----------14-14-10-----------------------------------------------------------|
----7---0----------12p10-10s9-10-9h10p9h10p9h10p9h10p9h10p9h10p9h10p9h10p9---|
----7---------------------------------------------------------------------~9-|
-0-----0--12-----------------------------------------------------------------|
----5-0----------------------------------------------------------------------|
--5--------------------------------------------------------------------------|

-------12--12-9-----------------------------12p10-10h12p10p9h10h12p10p9s7h9-|
-----9---10----10--9h10p9h10p9h10p9h10p9s7----------------------------------|
---8------------------------------------------------------------------------|
-0---------0----------------------------------------------------------------|
----------------------------------------------------------------------------|
----------------------------------------------------------------------------|

-9-9-10-10s12-------------------9-9-----------------------------------------|
--------------10p9-10--10-10-12-----12-10p9s7-9-10-9h10p9p--~7--------------|
------------------------------------9---------------------------9-----------|
--------------0-------------------------------------------------------------|
-----------------------9--9--0------11--------------------------------------|
----------------------------------------------------------------------------|

And so on!
Suggest correction
comments
print report bad tab
guest
You may want to rate the tab now too:
select rating
Wanna post a correction for this tab? Suggest correction