Oops, an error
Loading. Please wait.

Arioso Tab

version 2
version 2

Whole song

Interactive

5,072 views 24 this week
no commentswrite comment
1 2 3 4 5
excellent!
x 6
add to favorites
launch autoscroll
font size
0
reset
how to read this tab
guitar tuner
Autoscroll
slow
fast
+/-
esc
set tempo
stop
Help us to improve Ultimate-Guitar.com Take our survey!
×
Contributor
Tabbers playing skills
wooki97 19,328
advanced
\---Song:-Arioso----------------------\
 \---Composer:-Johann-Sebastian-Bach---\
  \---Transcription-by:Christian Liang--\
  /---E-Mail:christian.liang@gmail.com--/
 /---http://www.classclef.com----------/
/---Enjoy!----------------------------/

==========================================================================
     Arioso (Cantata no.156a) by Johann Sebastian Bach (1685-1750)
==========================================================================

Moderately Slow
Time Signature: 4/4
Key: G major

[1]                                                          II..
E|---------------0-|-----------------|-----3-0---------|---5-2-----------|
B|-0=======--1-3---|-----------0-1-3-|---------1======-|-------3-1---0-1-|
G|-----------------|-2=======--------|-0-------0-------|-----2-----------|
D|-----0---0-------|-----0---0-------|-------------2---|-0-------0-------|
A|-----------------|-----------------|-----3-----------|-----------------|
E|-3-----------3---|-2-----------2---|-0---------------|-------------2---|
   | | | | | | | |   | | | | | | | |   | | | | | | | |   | | | | | | | |
   |   |   |   |     |   |   |   |     |   |   |   |     |   |   |   | 
L  3         1 4     3           1 4       4   1   2       4 1 2 1   2 1
               3     2           2         3                 1

[5]                                    II.........       II.........
E|-----------------|-3=======--0-2-3-|-------------0-3-|-2=======--------|
B|-0---------------|-----------------|-----------2-----|-----------3-0---|
G|-----2-0---------|-----------------|-2=========------|-----2---------2-|
D|-----0-----------|-----2---2---0---|-----2---2-------|-0-------0-------|
A|-----------------|-----------------|-4-----------4---|-------------4---|
E|-3-------3---2---|-0---------------|-----------------|-----------------|
   | | | | | | | |   | | | | | | | |   | | | | | | | |   | | | | | | | |
   |   |   |   |     |   |   |   |     |   |   |   |     |   |   |   | 
L  3   2   3   2     4   1   1   2 2   1   1   1 1 3 2   1   1     2 3 1
                                       3       
   
   
[9]            II..      II........................
E|---------------2-|-0=======--------|-----------------|---0-3-7---------|
B|-----------0-3---|-----------2-----|-----2-3-3======-|---------2====-3-|
G|-0=======--------|-------------2---|---2-------------|-----------------|
D|-----0---0-------|-----2---2-----5-|-4---2---4-------|-----------------|
A|-2-----------2---|-4-----------4---|-5---------------|---------0---0---|
E|-----------------|-----------------|-------------2---|-3---0-----------|
   | | | | | | | |   | | | | | | | |   | | | | | | | |   | | | | | | | |
   |   |   |   |     |   |   |   |     |   |   |   |     |   |   |   | 
L  2           2 1   3   1   1 1 1 4   3 1 1 2 2   1     1   1 4 1     2        
               1                 3     4   1   3

[13]                 
E|-----------------|---------------0-|-----------------|-----3-0---------|
B|-3==============-|-0========-1-3---|-----------0-1-3-|---------1======-|
G|-----------------|-----------------|-2=======--------|-0-------0-------|
D|-0---2---4-------|-----0---0-------|-----0---0-------|-------------2---|
A|-----------------|-----------------|-----------------|-----3-----------|
E|-------------2---|-3-----------3---|-2-----------2---|-0---------------|
   | | | | | | | |   | | | | | | | |   | | | | | | | |   | | | | | | | |
   |   |   |   |     |   |   |   |     |   |   |   |     |   |   |   | 
L  2   1   4   2     3         1 4     3           1 4       4   1   2
                                 3     2           2         3
   

[17]   II..              
E|---5-2-----------|-----------------|-----------------|-----------------|
B|-------3-1---0-1-|-0-3-0-----------|-----------------|-----------------|
G|-----2-----------|-------0---------|-------0-0======-|-----0---------0-|
D|-0-------0-------|-----0---3---2-3-|-2h4-4-----------|---4---2-4-------|
A|-----------------|-----------------|-3-------4======-|-5---3---5---5---|
E|-------------2---|-3-------3======-|-----------------|-----------------|
   | | | | | | | |   | | | | | | | |   | | | | | | | |   | | | | | | | |
   |   |   |   |     |   |   |   |     |   |   |   |     |   |   |   | 
L    4 1 2 1   2 1   3 4     4   2 4   1 4 4   3         4 3 2 1 3   4   
       1                     3         2                         4

[21]                 
E|-----------------|
B|-----------------|
G|-0==============-|
D|-0==============-|
A|-----------------|
E|-3==============-|
   | | | | | | | |   
   |   |   |   |     
L  1      
   
Suggest correction new What's this?
You can suggest a correction to this tab. Community and Mods will review your correction and vote to approve or reject it.
comments
print report bad tab
guest
You may want to rate the tab now too:
select rating
Please do not post tabs as comments. Select "correction" instead!