Oops, an error
Loading. Please wait.

Ave Maria Tab

version 1
version 1

Whole song

  • This is just the backing guitar TAB, kept as short... Show more

Interactive

94 views 18 this week
no commentswrite comment
1 2 3 4 5
3 more votes to show rating
add to favorites
launch autoscroll
font size
0
reset
how to read this tab
guitar tuner
Autoscroll
slow
fast
+/-
esc
set tempo
stop
Help us to improve Ultimate-Guitar.com Take our survey!
×
Author
Difficulty
intermediate
About this tab version
This is just the backing guitar TAB, kept as short and easy to read as I could make it. Was this info helpful? Yes No
Play each Bar twice until the last 2 lines.


[Bar 1-4]
e|-----0---0-|-----1---1-|-----1---1-|-----0---0-|
B|----1---1--|----3---3--|----3---3--|----1---1--|
G|---0—--0---|---2---2---|---0---0---|---0---0---|
D|--2--------|--0--------|--0--------|--2--------|
A|-3---------|-3---------|-2---------|-3---------|
E|-----------|-----------|-----------|-----------|

[Bar 5-8]
e|-----5---5-|-----------|-----3---3-|-----------|
B|----5---5--|------3---3|----3---3--|------1---1|
G|---2---2---|-----2---2-|---0---0---|-----0---0-|
D|--2--------|--0-4---4--|--0--------|----2---2--|
A|-3---------|-3---------|-2---------|-2-3--3----|
E|-----------|-----------|-----------|-----------|

[Bar 9-12]
e|-----------|-----------|-----------|-----------|
B|------1---1|-----1---1-|-----0---0-|-----2---2-|
G|-----0---0-|----2---2--|----0---0--|----0---0--|
D|----2---2--|---0---0---|---0---0---|---2---2---|
A|-0-3-------|--0--------|--2--------|--1--------|
E|-----------|-2---------|-3---------|-3---------|

[Bar 13-16]
e|-----------|-----------|-----------|-----1---1-|
B|-----3---3-|------0---0|-----1---1-|----1---1--|
G|----2---2--|-----1---1-|----0---0--|---2---2---|
D|---0---0---|--0-3---3--|---2---2---|--3--------|
A|--0--------|-----------|--3--------|-----------|
E|-1---------|-1---------|-0---------|-0---------|

[Bar 17-20]
e|------1---1|-----1---1-|-----0---0-|-----0---0-|
B|-----1---1-|----0---0--|----1---1--|----1---1--|
G|----2---2--|---0---0---|---0---0---|---3---3---|
D|-0-3-------|--0--------|--2--------|--2--------|
A|-----------|-----------|-3---------|-3---------|
E|-----------|-3---------|-----------|-----------|

[Bar 21-24]
e|-----0---0-|-----------|-----------|-----------|
B|----1---1--|-----4---4-|-----3---3-|-----3---3-|
G|---2---2---|----2---2--|----5---5--|----4---4--|
D|--3--------|---4---4---|---3---3---|---3---3---|
A|-----------|--3--------|--5--------|--5--------|
E|-1---------|-2---------|-4---------|-3---------|

[Bar 25-28]
e|-----0---0-|-----1---1-|-----1---1-|-----2---2-|
B|----1---1--|----1---1--|----0---0--|----1---1--|
G|---0---0---|---0---0---|---0---0---|---2---2---|
D|--2--------|--0--------|--0--------|--1--------|
A|-3---------|-----------|-----------|-----------|
E|-----------|-3---------|-3---------|-3---------|

[Bar 29-32]
e|-----3---3-|-----1---1-|-----1---1-|-----0---0-|
B|----1---1--|----1---1--|----0---0--|----1---1--|
G|---0---0---|---0---0---|---0---0---|---3---3---|
D|--2--------|--0--------|--0--------|--2--------|
A|-----------|-----------|-----------|-3---------|
E|-3---------|-3---------|-3---------|-----------|

[Bar 33]
e|-----------1-----------------------|
B|---1-----1---1---1-----------------|
G|-------2-------2---2---2-----------|
D|-----3---------------3---3---3-----|
A|-3---------------3---------5---5---|
E|-----------------------------------|

[Bar 34-End]
e|-----------1-----------------------|-----------|
B|---0---0-3---3-0-3-0---0-----------|--1--------|
G|-----0---------------0-------------|--0--------|
D|-------------------------0-3-2-0---|--2--------|
A|-3---------------3-----------------|--3--------|
E|-----------------------------------|-----------|
Suggest correction
Give kudos to tab author, rate the tab!
1 2 3 4 5
comments
print report bad tab
guest
You may want to rate the tab now too:
select rating
Wanna post a correction for this tab? Suggest correction