Oops, an error
Loading. Please wait.

Badinerie Tab

version 2
version 2

Whole song

Interactive

32,681 views 90 this week
no commentswrite comment
1 2 3 4 5
excellent!
x 12
add to favorites
launch autoscroll
font size
0
reset
how to read this tab
guitar tuner
Autoscroll
slow
fast
+/-
esc
set tempo
stop
Help us to improve Ultimate-Guitar.com Take our survey!
×
Author
Badinerie by Bach for the flute.  John Williams does a good cover of this on his album Bridges.

Please Rate


E|--6-9-6---6------------|----------------------------------------|
B|--------6---6---6------|----------------------4---2-------------|
G|--------------6---6----|----3-6-3-5-3-5-3-2-5---5---3-----------|
D|--------------------8--|--3-------------------------------------|
A|-----------------------|----------------------------------------|
E|-----------------------|----------------------------------------|

E|--6-9-6---6------------|---------------6------------------------|
B|--------6---6---6------|----------------------------------------|
G|--------------6---6----|--6-5-6--6-5-6---6-6h8p6-5--------------|
D|--------------------8--|----------------------------------------|
A|-----------------------|----------------------------------------|
E|-----------------------|----------------------------------------|

E|-------------------9--------------------------------------------|
B|----------------------------------------------------------------|
G|--10-9-10--10-9-10---10-10h12p10-9------------------------------|
D|----------------------------------------------------------------|
A|----------------------------------------------------------------|
E|----------------------------------------------------------------|


E|------4---3---3-------6-----------------------------------------|
B|----6---5---6---6---8---8-9-8-9-8-------------------------------|
G|--5---------------9---------------------------------------------|
D|----------------------------------------------------------------|
A|----------------------------------------------------------------|
E|----------------------------------------------------------------|


E|------------6-------8-------9-----------------------------------|
B|--6-9-6/5/6---6/5/6---6/5/6---6/5-------------------------------|
G|----------------------------------------------------------------|
D|----------------------------------------------------------------|
A|----------------------------------------------------------------|
E|----------------------------------------------------------------|


E|-----9-8--------------------------------------------------------|
B|---------9-11-8-9----9-8h9p8------------------------------------|
G|--10--------------10---------10---------------------------------|
D|----------------------------------------------------------------|
A|----------------------------------------------------------------|
E|----------------------------------------------------------------|


E|---------------------------------4-2---2---2-6-2---2------------|
B|--6-9-6---6----------------4-3-6-----6---4-------4---4---4------|
G|--------5---5---5------4-3-----------------------------5---5----|
D|--------------6---6------------------------------------------6--|
A|--------------------8-------------------------------------------|
E|----------------------------------------------------------------|


E|----------------------2-----------------------------------------|
B|------6---4---4-----4---4-6-4-6-4-------------------------------|
G|----6---6---6---6-5---------------------------------------------|
D|--6-------------------------------------------------------------|
A|----------------------------------------------------------------|
E|----------------------------------------------------------------|


E|----------------------------6-------6---------------------------|
B|----6-------7-------9-----------------9-6-7---6---6-4h6p4-------|
G|--6---6/5/6---6/5/6---6/5/6---6/5/6---------8---6---------6-----|
D|----------------------------------------------------------------|
A|----------------------------------------------------------------|
E|----------------------------------------------------------------|


E|-------------------9--------------------------------------------|
B|----------------------------------------------------------------|
G|--10-8-10--10-8-10---10-10h11p10-8------------------------------|
D|----------------------------------------------------------------|
A|----------------------------------------------------------------|
E|----------------------------------------------------------------|


E|---------------8------------------------------------------------|
B|----------------------------------------------------------------|
G|--8-6-8--8-6-8---8-8h10p8-6-------------------------------------|
D|----------------------------------------------------------------|
A|----------------------------------------------------------------|
E|----------------------------------------------------------------|


E|--6-9-6------------------------------------6-9-6----------------|
B|--------7--9-7---------------------------6-------6--------------|
G|---------------8--8-6------------------6-----------6-8-6-5-6----|
D|----------------------9--9-8-7-------8-----------------------8--|
A|-------------------------------8-9-8----------------------------|
E|----------------------------------------------------------------|

Suggest correction
What's this?
You can suggest a correction to this tab. Community and Mods will review your correction and vote to approve or reject it.
comments
print report bad tab
guest
You may want to rate the tab now too:
select rating
Please do not post tabs as comments. Select "correction" instead!