Oops, an error
Loading. Please wait.

Bourree In E Minor Tab

version 2
version 2

Whole song

64,650 views 555 this week
5 commentsread comments
1 2 3 4 5
excellent!
x 20
add to favorites
launch autoscroll
font size
0
reset
how to read this tab
guitar tuner
Autoscroll
slow
fast
+/-
esc
set tempo
stop
Help us to improve Ultimate-Guitar.com Take our survey!
×
Author
Difficulty
intermediate
------------------------------------------------------------------------------
        Bourrée In E Minor by Johann Sebastián Bach
-------------------------------------------------------------------------------
"Boureé en Mi Menor" acordes/chords: Sebastián Arashiro
*E-mail: playing.the.angel_@hotmail.com
*Note that the chords duration are halfs of quarters.

4/4  (Andante/Moderatto)

Chords:

[Part 1]

||: - | Em B7 | G B7 Em D7 | G B7 | G B7 Em    | 
Em B7 | G B7 Em D7 | G D7 | G :||



[Part 2]

||: - | D7 G | C E7   Am | E7 Am | Am D7 | 
G   C E7 | Am F#7 | Bm F#7 | Bm Bm7 | 
E7 A7 | D7 G | C F#7 | B7 E7 | 
Am D7 G C | F# B7 Em B7 | B7 | Em :||


___________________________________________________

And here is the tab:

     E  E  E  E  E  E  E  E     E  E  E  E  E  E  E  E     E  E  E  E  E  E  E  E   
e||--0--2--3--L--2--0--------|--0--2--------------0--L--|--------------------------|
B||--------------------4--L--|--------0--L--2--4--------|--3--1--0--L--------------|
G||--------------------------|--------------------------|--------------2--0--------|
D||--------------------------|--------------------------|--------------------4--L--|
A||--------------0-----2--L--|--0-----------------------|--------------0-----2--L--|
E||--3--2--0--L--------------|--------3--L--2-----0--L--|--2-----3--L--------------|


    E  E  E  E  E  E  E  E     E  E  E  E  E  E  E  E     E  E  E  E  E  E  E  E   
e|--------------------------|--0--2--3--L--2--0--------|--0--2--------------0--L--|
B|--------0-----------------|--------------------4--L--|--------0--L--2--4--------|
G|--0--2-----2--0-----------|--------------------------|--------------------------|
D|-----------------4--2-----|--------------------------|--------------------------|
A|--0-----------2-----------|--------------0-----2--L--|--0-----------------------|
E|--------3-----------0--2--|--3--2--0--L--------------|--------3--L--2-----0--L--|


    E  E  E  E  E  E  E  E     E  E  E  E  E  E  E  E     E  E  E  E  E  E  E  E   
e|--------------------------|--------------------------|--0--2--3--L--2--0--------|
B|--3--1--0--L--------------|--------------------------|--------------------4--L--|
G|--------------2--0--------|-----0--0--L--L--L--L--L--|--------------------------|
D|--------------------4--L--|--0-----0--L--L--L--L--L--|--------------------------|
A|--------------3-----5--L--|--------2--L--L--L--L--L--|--------------0-----2--L--|
E|--2-----3--L--------------|--------3--L--L--L--L--L--|--3--2--0--L--------------|


    E  E  E  E  E  E  E  E     E  E  E  E  E  E  E  E     E  E  E  E  E  E  E  E   
e|--0--2--------------0--L--|--------------------------|--------------------------|
B|--------0--L--2--4--------|--3--1--0--L--------------|--------0-----------------|
G|--------------------------|--------------2--0--------|--0--2-----2--0-----------|
D|--------------------------|--------------------4--L--|-----------------4--2-----|
A|--0-----------------------|--------------0-----2--L--|--0-----------2-----------|
E|--------3--L--2-----0--L--|--2-----3--L--------------|--------3-----------0--2--|


    E  E  E  E  E  E  E  E     E  E  E  E  E  E  E  E     E  E  E  E  E  E  E  E   
e|--0--2--3--L--2--0--------|--0--2--------------0--L--|--------------------------|
B|--------------------4--L--|--------0--L--2--4--------|--3--1--0--L--------------|
G|--------------------------|--------------------------|--------------2--0--------|
D|--------------------------|--------------------------|--------------------4--2--|
A|--------------0-----2--L--|--0-----------------------|--------------3-----5--L--|
E|--3--2--0--L--------------|--------3--L--2-----0--L--|--2-----3--L--------------|


    E  E  E  E  E  E  E  E     E  E  E  E  E  E  E  E     E  E  E  E  E  E  E  E   
e|--------------------------|--------------------------|--3-----0--L--------------|
B|--------------------------|--0-----3--L-----1--0--L--|-----3-----------3--1--L--|
G|-----0-----0--0--L--L--L--|-----0--------2-----------|--------------4-----------|
D|--4-----4-----0--L--L--L--|--------------0-----------|--------------------------|
A|--------5-----2--L--L--L--|--------------------------|--2-----3--L--------0--L--|
E|--------------3--L--L--L--|--3-----2--L--------3--L--|--------------4-----------|


    E  E  E  E  E  E  E  E     E  E  E  E  E  E  E  E     E  E  E  E  E  E  E  E   
e|--------------------------|--------------------------|--------------3-----0--L--|
B|-----------------0--1--L--|--0-----------------------|--3-----0--L-----3--------|
G|--4--2--1--L--2-----------|-----2--2-----------------|-----2--------------------|
D|--0-----2--L--------2--L--|--------------------------|--0-----------------------|
A|--------------0-----------|--------0--2--------------|--------------2-----3--L--|
E|--------------------------|--0-----------3--2--L--L--|--------3--L--------------|


    E  E  E  E  E  E  E  E     E  E  E  E  E  E  S S S S    S S E  E  E  E  E  E  E   
e|--------------5-----2--L--|-----0----------------------|---------------------------|
B|-----3--1--L-----5--------|--2-----3--L--2--0----------|------0--0-----------------|
G|--4-----------------------|--------------------4-3-4-3-|--4-3----------------------|
D|--------------------0--L--|--------------2-----4-------|---------------------1--L--|
A|--------0--L--4-----------|--1-----2-------------------|---------2--1--2--4--------|
E|--4-----------------------|----------------------------|--2------------------------|


    E  E  E  E  E  E  E  E     E  E  E  E  E  E  E  E     E  E  E  E  E  E  E  E   
e|--7--------------0--5--L--|-----3--2--L--0-----3--L--|-----1--0--L--5-----2--L--|
B|-----7--9--L--7-----------|--5--------------3--------|--3--------------5--------|
G|--------------------------|--------------------------|--------------------------|
D|--------------------------|--------0--L--------------|--------------------------|
A|--------7--L--5-----4--L--|--------------3--L--2--L--|--------3--L--2--L--0--L--|
E|--7-----------------------|--5--L--------------------|--3--L--------------------|


    E  E  E  E  E  E  E  E     E  E  E  E  E  E  E  E     E  E  E  E  E  E  E  E   
e|-----0--------------------|--0-----------------------|--------------------------|
B|--2-----4--L--------------|-----0--1-----3-----0-----|--1-----------0-----------|
G|--------------4-----------|-----------------2--------|-----0--2-----------0--L--|
D|--------------------------|-----------2--4--------1--|--2--------------4--------|
A|--------2--L-----3--2--0--|--------0-----------------|-----------4--6-----------|
E|--2-----------------------|--4-----------------3-----|--------2-----------0--L--|


    E  E  E  E  E  E  E  E     E  S S E  E  E  E  E  E     E  E  E  E  E  E  E  E    
e|--------------------------|---------------------------|--------------------------||
B|--------------------------|---------------------------|--0-----------------------||
G|--------------------0--L--|-----0---------------------|-----0--L-----------------||
D|--4--2--1--L--2--4--------|--4----4-2--4--2--L--L--L--|-----------2--L--L--L--L--||
A|--0-----2--L--0--L--2--L--|---------------------------|-----------2--L--L--L--L--||
E|--------------------------|---------------0--L--L--L--|--3--------0--L--L--L--L--||


Suggest correction
comments
print report bad tab
5 comments total. Showing first comments.
+1 reply
otsonordberg 10 wrote on December 4 2013, 02:05 pm

what does the L mean?

0 reply
brunogr 10 wrote on December 21 2013, 07:13 pm

I guess i means "hold the last note"

-2 reply
shamaatae22 10 wrote on January 9 2015, 04:29 pm, edited at 04:29 pm

yeah. annoying as fk though, i mean we have ears?

guest
You may want to rate the tab now too:
select rating
Please do not post tabs as comments. Select "correction" instead!