Oops, an error
Loading. Please wait.

Bourree No 1 Cello Suite No 3 Tab

5,913 views 30 this week
no commentswrite comment
1 2 3 4 5
excellent!
x 1
add to favorites
launch autoscroll
font size
0
reset
how to read this tab
guitar tuner
Tab Pro tools
  • play this tab
  • loop segment
  • change instrument
  • show fretboard
  • metronome
Autoscroll
slow
fast
+/-
esc
set tempo
stop
Contributor
This piece was written by Johan Sebastian Bach, and it is his third Cello Suite. 
it is for a violin and a cello, this tab has both parts for one guitar.
The tuning is as follows:

e
b
g
d
G
D

I wrote the rythm so that x-x is an eight-note and x--x is a quarter note.

Good luck! =)


               (2h3p2)
e|---------------3--2~~0-2--------------------------------3-2-----------2-3-|
B|-0-1-3-------------------3----0-1---------3--1-0---0--------5-7-8-3-2-----|
g|--------0---0-----2---------2---2----------------2---0--------------------|
d|-----0----4---------------------0--4-2-4-----0----------------------2-----|
g|-----0---------------------------------------0--------------6-------------|
d|------------------0-------------------------------------------------------|

e|-----------------0-5--2---------------------||
B|-0---7-8-------2--------3----2--3----------O||
g|---------0---2------------2--------2--------||
d|---7-------4---2---4- ----2------------0----||
g|---6-------------------------2-------------O||
d|-----------0--------------------0-----------||

e|-2-3-5--2------2------3-5-7--3---0----0---3-2-0---0--------2---3-0---0---|
B|----------3-1-----0-3----------4----1-----------0---4-2-0----0-----4-----|
g|--------------------------0-------------2--------------------------------|
d|-----------------------------------------------------------1---2---------|
g|------------------0--------------5--------------4------------------------|
d|-----0-------------------------------------------------------------------|

e|-2---3---5-2-0-2-3---5-----7-2-3----0---0--------0-2-3----------------3-2-2-|
B|---0---0-----------0-------------0----4----0------------2-0-2---------------|
g|-----------------------2-0-------------------------------------2----2-------|
d|-1---2---4-------2---4--------------4---2-----2-------------------0---------|
g|---------------------------------4--4----------------2----------------------|
d|------------------------------------------------------------------0---------|

e|---------3-----8-7-3-5-3-2-0----2-3-5-2---0-2-----------------------------|
B|-3-1-0-3---0-----------------3----------3-----3---0-1-------------3-0-----|
g|------------------------------------2-----------2-----2---0-2---------0---|
d|-------------7-------0--------------4-------0-----------4-----4-0---0---0-|
g|-----0-------5--------------------------------------2---------------0-----|
d|------------------------------------0-------0---------------0-------------|

e|---------3----------------------------------------------------------------|
B|-3-0-------3-0-1---0-----0---0-1-----0-1-----0-1---------0-3--0-----------|
g|-----0-----------2---0-----2-----0---------------------0--------0-------0-|
d|---0---0---0---4-------0---4-------4-----2-0---------0------------0--4----|
g|---0-------0-------0-----------------------4-----4-2--------------------0-|
d|-----------------------------------0--------------------------------------|

e|---||
B|--O||
g|---||
d|---||
g|--O||
d|---||

If you would like to change something or are wondering about something you can contact 
on arvid_marklund@hotmail.com
comments
We did not receive enough feedback on this tab! Please rate:
print report bad tab
1 2 3 4 5
I want to post or [tab]
guest
You may want to rate the tab now too:
select rating
Please do not post tabs as comments. Select "correction" instead!