Oops, an error
Loading. Please wait.

Bwv 1004 - Chaconne Tab

9,483 views 6 this week
3 commentsread comments
1 2 3 4 5
x 3
add to favorites
launch autoscroll
font size
0
reset
how to read this tab
guitar tuner
Autoscroll
slow
fast
+/-
esc
set tempo
stop
Help us to improve Ultimate-Guitar.com Take our survey!
×
Author
Acordes Usados:
===============

  D      Bm      G      Gm      A      REm
e|-2-|  e|-2-|  e|-3-|  e|-3-|  e|-0-|  e|-2-|  *off* nota apagada
B|-3-|  B|-3-|  B|-3-|  B|-3-|  B|-2-|  B|-2-|
G|-2-|  G|-4-|  G|-4-|  G|-3-|  G|-2-|  G|-2-|
D|-0-|  D|-4-|  D|-5-|  D|-5-|  D|-2-|  D|-0-|
A|-x-|  A|-2-|  A|-5-|  A|-5-|  A|-0-|  A|-0-|
E|-x-|  E|-x-|  E|-3-|  E|-3-|  E|-x-|  E|-X-|

==================================================================

[Intro] 
e|-2--2-2-2-2h3p2-2-0-0-2-2-3~-----------------|*Z*|--5--|-2.---|
B|-3--3-3-3-3-3-3-3-3-3-3-3-3~-----------------|---|---5-|-3.---|
G|-2--2-2-2-2-2-2-2-2-2-2-2-4~-----------------|---|-4--4|-2.---|
D|-0--0-0-0-0-0-0-0-0-0-0-0-5~-----------------|---|-----|-0.---|
A|--------------------------5~-----------------|---|-----|------|
E|--------------------------3~(Parte del bajo)-|---|-----|------|
 

           D
Yo se que nunca podre
             Bm
dejar de quererte una vez
                G
y es que aunque no puedas hablarme
Gm                 A (silencio)
  se bien lo que quieres decirme..

            D
No se si pueda resistir
               Bm
el tiempo lo sabra decir
                 G
y es que aunque no te tengo cerca
Gm            A (con palm mute)
  aun te puedo sentir

[Chorus]
             D
Y solo yo quiero ohhh
                 Bm
que seas mia otravez
         G             Gm
y aaaqui en mi corazon
                A
nunca te olvidare

[Solo]
e|-----------------------------------------------|
B|-12^p10----------------------------------------|
G|--------11-9/11-9----------9-9/11-11~~11~~9/11-|
D|------------------12--9-12---------------------|
A|--------------------12-------------------------|
E|-----------------------------------------------|


e|----------------------------------------|
B|-12^p10---------------------------------|
G|--------11-9/11-9--------9-11-----------|
D|------------------12--12------12-9-12^~-|
A|--------------------12------------------|
E|----------------------------------------|


e|---10-12-12/14-14v(x5)..14p12--12/14--12/14-12---12/14-12------------------|
B|-12--------------------------15---------------15---------15-12-14v(x5)-----|
G|---------------------------------------------------------------------------|
D|---------------------------------------------------------------------------|
A|---------------------------------------------------------------------------|
E|---------------------------------------------------------------------------|


e|------------------------------------------------------12--12-14^~~v-----|
B|---------------------------------------12--12-15-12-15--15--------------|
G|------------------------11--11-14-11-14--14-----------------------------|
D|---------12--12-14-12-14--14--------------------------------------------|
A|-14-12-14--14-----------------------------------------------------------|
E|------------------------------------------------------------------------|


e|-14^~~p12----12~14^vv-14^vv-14^vv-14^~~15^(off)-|
B|----------15------------------------------------|
G|------------------------------------------------|
D|------------------------------------------------|
A|------------------------------------------------|
E|------------------------------------------------|


e|-17^br~~15-14-15-14-------17^br~~15-14-15-14------------------------|
B|--------------------15-15--------------------15-15------15-17-15-17-|
G|---------------------------------------------------14/16------------|
D|--------------------------------------------------------------------|
A|--------------------------------------------------------------------|
E|--------------------------------------------------------------------|


e|-14-15-16-17^(17)-----------------------17vv---------19-18-17-16^-|
B|-----------------17-15-17-15---15-15^v~~-------15-15--------------|
G|----------------------------16---------------16-------------------|
D|------------------------------------------------------------------|
A|------------------------------------------------------------------|
E|------------------------------------------------------------------|


e|-13^vv-13----------------------------------------|
B|---------15-12-10h12p10---10-12-10-12-10-12-10~~-|
G|------------------------11-----------------------|
D|-------------------------------------------------|
A|-------------------------------------------------|
E|-------------------------------------------------|
 
             D
No se si pueda resistir
          Bm
 
             G
y es que contigo aprendi
Gm                                A
  la verdad, nose si a vivir o morir

[Chorus] x2
[Outro]
                  D            G  D          G    D               Dm
e|--------------------------------2.2.3.3.3.3/5-3-------------------|
B|-3-2-0------------------------------------------------------------|
G|-------2--------7.7.8.8.8.8/10-8---------------7.7.8.8.8.8/10-8-7-|
D|------------------------------------------------------------------|
A|------------------------------------------------------------------|
E|------------------------------------------------------------------|

Termina en Dm



************************************

| x  Dead note
| h  Hammer-on
| p  Pull-off
| ~  Vibrato
| /  Slide up 

************************************
Suggest correction
Give kudos to tab author, rate the tab!
1 2 3 4 5
comments
print report bad tab
3 comments total.
0 reply
xPaperwings 10 Oct 09, 2016 12:09 AM

What happened to this tab?

0 reply
Baldasar 50 Oct 09, 2016 02:35 PM

yeah wtf something is going on

they want to remove the best tab on this site or what?

0 reply
ronaldomoinho 10 Oct 14, 2016 11:57 PM

where is the tab? why deleted?

guest
You may want to rate the tab now too:
select rating
Wanna post a correction for this tab? Suggest correction