Oops, an error
Loading. Please wait.

Bwv 1005 - Allegro Assai Tab

1,203 views 9 this week
no commentswrite comment
1 2 3 4 5
3 more votes to show rating
add to favorites
launch autoscroll
font size
0
reset
how to read this tab
guitar tuner
Autoscroll
slow
fast
+/-
esc
set tempo
stop
Help us to improve Ultimate-Guitar.com Take our survey!
×
Author
BWV 1005 - Largo - Violin Sonata No 3 in C - Johann Sebastian Bach (1985-1750)
******************************************************************************
1st version - by kanariokasia, in F, with ornaments, spacing indicates timimg
2nd version - by Allen Trotter, in F, no ornaments, generated by Power Tab
******************************************************************************

JS Bach - BWV 1005 - Largo

tabbed by kanariokasia@infoseek.jp - June 2011

Tuning: E A D G B E     Time: 2/4     Key: F

1
||----------1--3--0--1-------------------------|
||-------1-----------------3----1--------------|
||-2--3-----------------2-----3-------3--2--0--|
||-3-----------------------2-------------------|
||---------------------------------------------|
||---------------------------------------------|

2
|-------------------------------------------------|
|----------------------3-----------------------1--|
|-------------0--2--3-----3h5p3-2--2-----2--3-----|
|-3--2--0--3--------------2-----------------------|
|-5-----------------------3-----------------------|
|-------------------------------------------------|

3
|-------------3--5--6--3--1--0--------1----------|
|-3--------3--------------------3--1-------------|
|----2--3-----------------3----------------------|
|-3-------------------------------------3--2--3--|
|-1----------------------------------------0-----|
|------------------------------------------------|

4  
|--------------------------------------------------|
|----------3--------1------------------3-----3-----|
|-0--------------0-----3--3tr2-0-------------------|
|----2--3-----2-----------3-------3-------2--3--0--|
|-1-----------3------------------------------------|
|--------------------------------------------------|

5
|-------------1-----1-----1-----0--------5--------|
|-3-----1-----------------------1-----------3-----|
|-------2--------0--2-----0--------------------5--|
|-2--------------------3--------------3-----------|
|----0-----------------------3--------------------|
|-------------------------------------------------|
  
6
|-------3-------------0--0-----------------0--1--|
|-0-------------1--3--------1--0--------3--------|
|----0----------------------------2--------------|
|-3----------2-----------3-----------3-----------|
|------------------------------------------------|
|------------------------------------------------|

7
|-1-----------5--------------------5-------------|
|-0--3--1--0-----6--8--0--1-----------1-0tr1---1-|
|-0--------------------------------5--0----------|
|----------------------3--2--0-----3-------------|
|-------------------------------3----------------|
|------------------------------------------------|

8  
|--------------------------------------------------|
|-1--------1--3--0--1------------------------------|
|-------0--------------2------------------------2--|
|-2--3--------------------3h5p3--2--3-----0--3-----|
|-3-----------------------3------------------------|
|--------------------------------------------------|

9
|----1----------------------------------------------|
|-3-----3--0----------------------------------------|
|-------------0-------------------------3-----3-----|
|----------------3--2--3--3tr2--0----------0--2-----|
|-------------2-----------3--------3-------------3--|
|---------------------------------------------------|

10 
|--------------------------------------------------6--|
|--------------------------------------3--4--3--4-----|
|-3--0--2----5p3--5-----5-----5--2--3-----------------|
|-3------------------2--4--0--5-----------------------|
|-----------------------------------------------------|
|-----------------------------------------------------|

11
|-5--3--5--------------4--3--2--3------------------|
|-4-----------3-----3-----3---------0--1--0--1--4--|
|----------5-----5---------------------------------|
|-3-----------------------1------------------------|
|--------------------------------------------------|
|--------------------------------------------------|
  
12
|------------------------------6--5-3tr5-2-3--|
|---------------4-3---------3-----------------|
|----2--5-----------5-3--5--------5-----------|
|-4-----------4-------5-----------0-----------|
|-0-------------------------------------------|
|---------------------------------------------|

13
|-3---6-5-6------5-3-------------------0--3-1-3--5-|
|--------------------6-5-3-1--0--1--3--------------|
|-3------------------------------------------------|
|-------------3------------2-----------------------|
|-5------------------------------------------------|
|-3------------------------------------------------|
  
14
|-6--3--5------3-1-0-----------------3--0--1------|
|--------------------3-1----------3---------------|
|-5----------------------3--2--3--------------3---|
|-3---------2------------3------------------------|
|-------------------------------------------------|
|-------------------------------------------------|
 
15
|-------------3--0--1-------------1--5--3-1-0--1--|
|----------1----------------0--3------------------|
|-2--0--2-------------2--0------------------------|
|-------------------------------------------------|
|-3----------------------2------------------------|
|-------------------------------------------------|
  
16
|-0--1-0--------------------------------------------|
|-1------3--1---------------------------------------|
|-0-------------------0--2--2--------------0--2--3--|
|------------------3--------0--3--2--0--------------|
|-1-------------0-----------1-----------1-----------|
|---------------------------------------------------|
 
17
|------------------------------------------------|
|-------------3-----1--------------3-------------|
|-3--0-----------3-------------------------------|
|-2-----3--2-----------2--3--------3--3-2tr3---3-|
|-3--------------------1--0-----0--1--3----------|
|----------------------------3-------------------|

18
|----------------------------------------3-----------|
|----------1-----------1--------------3-----3--0-----|
|----0--2----------------------0-2-3-----------------|
|-3-----------1--0--1------0-3--------------------3--|
|----------------------------------------------------|
|----------------------------------------------------|

19
|-------------------------------5-6p5-6-10-8-------0--1-0-----|
|-------------5-6-8p5-----5-6-8---------------------------3-1-|
|-------4-5-7---------5-7-----------------------3-------------|
|---5-7-------------------------------------------------------|
|-7-----------------------------------------------------------|
|-------------------------------------------------------------|

20
|-1--0--------------------1--4-3-4-----4-3-1-0-1-|
|------3-1---3------------3---------0------------|
|-2-------------2--0---0--1----------------------|
|------------3-------3---------------------------|
|---------------3---------2----------------------|
|------------------------------------------------|

21
|----0-----6--5----------------------1---||
|-1-----6-------8--5--6--6-5tr6--6-------||
|-2----------------------3-----------2---||
|------------------------5-----------3---||
|-3----------------------3---------------||
|----------------------------------------||


******************************************************************************
******************************************************************************

#----------------------------------PLEASE NOTE--------------------------------#
#This file is the author's own work and represents their interpretation of the#
#song. You may only use this file for private study, scholarship, or research.#
#-----------------------------------------------------------------------------#

                       LARGO - VIOLIN SONATA #3 (BWV1005)

Music by J.S. Bach
Transcribed by Allen Trotter

***********************************************************************
measure 3 - A (3rd string, 2nd fret - 4th note from end) removed
measure 15 - last note changed from E to F (1st string, 1st fret)
measure 20 - Bb changed to B (5th string, 2nd fret)
measure 20 - A changed to Ab (1st string, 4th fret - 5th note from end)
Weed - weed@wussu.com - 2nd July 2011
***********************************************************************

tuning E A D G B E

  E=50
  4/4

1  S S S S S S S S S S E S S S S   S S S S S S S S S S E S S S S
|--------1-3-0-1-----------------|--------------------------------|
|------1-----------3---1---------|---------------3-------------1--|
|--2-3-----------2---3-----3-2-0-|---------0-2-3---3-2-2---2-3----|
|--3---------------2-------------|-3-2-0-3---------2--------------|
|--------------------------------|-5---------------3--------------|
|--------------------------------|--------------------------------|
   E   E   Q       E   E Q         E   E   Q       E   E Q


3  S S S S S S S S S S S S S S S S   S S S S S S S S E S S E   E
|----------3-5-6-3-1-0-----1-------|--------------------------------|
|--3-----3-------------3-1---------|-------3-----1---------3---3----|
|----2-3-----------3---------------|-0---------0---3-3-0------------|
|--3-------------------------3-2-3-|---2-3---2-------3---3---2-3-0--|
|--1---------------------------0---|-1-------3----------------------|
|----------------------------------|--------------------------------|
   E   E   Q       E   E   E   E     E   E   E   E   E  E  S S S S


5  E   E E   E   E   E +S  S S S   S S E S S S S S S S S S S S S
|--------1---1---1---0-(0)-5-----|-----3-------0-0-----------0-1-|
|--3---1-------------1-------3---|-0-------1-3-----1-0-----3-----|
|------2---0-2---0-------------5-|---0-----------------2---------|
|--2-----------3--------3--------|-3-----2-------3-------3-------|
|----0-------------3-------------|-------------------------------|
|--------------------------------|-------------------------------|
   S S E S S S S S S E  E    E     E   E E   E   E   E   E   E


7  S S S S S S S S E   S S E. S   S S S S S S S S S S E S S S S
|--1-------5-------------5------|-------------------------------|
|--0-3-1-0---6-8-0-1------------|-1-----1-3-0-1-----------------|
|--0---------------------5-4--5-|-----0---------2-------------2-|
|----------------3-2-0---3-5----|-2-3-------------3-2-3---0-3---|
|----------------------3--------|-3---------------3-------------|
|-------------------------------|-------------------------------|
   E   E   E   S S S S S S Q      E   E   Q       E   E Q


9  S S S S E S T T E S S E   E     S S S T T E   E   S S S S S S S S
|----1---------------------------|---------------------------------6-|
|--3---3-0-----------------------|-------1---1-------1-----3-4-3-4---|
|----------0-------------3---3---|-3-0-2---3-----5---0-2-3-----------|
|------------3-2-3-2-0-----0-2---|-3-----------2-4-------------------|
|----------2-------3---3-------3-|-----------------5-----------------|
|--------------------------------|-----------------------------------|
   Q       E E     E E   S S S S   E   E     S S S S E   E   Q


11 S S S S S S S S S S S S S S S S   S S E S S S S S S S S E T T S
|--5-3-5---------4-3-2-3-----------|---------------------6-5--------|
|--4-------3---3---3-----0-1-0-1-4-|---------4-3-------3-----8-7-8--|
|--------5---5---------------------|---2-5-------5-3-5-----5--------|
|--3---------------1---------------|-4-----4-------5-------0--------|
|----------------------------------|-0------------------------------|
|----------------------------------|--------------------------------|
   Q       Q       E   E   Q         E   E E   E   E   E   E E


13 S T T E S. T T T T T S S S S S T T S S
|--3-6-5-6----5-3---------------0-3-1-3-5-|
|-----------------6-5-3-1-0-1-3-----------|
|--3--------------------------------------|
|----------3------------2-----------------|
|--5--------------------------------------|
|--3--------------------------------------|
   E     E    Q         E   E   Q


14  S S E S. T T T T T S S S S S S S S
|--6-3-5----3-1-0-------------3-0-1-----|
|-----------------3-1-------3-----------|
|--5------------------3-2-3---------3---|
|--3-----2------------3-----------------|
|---------------------------------------|
|---------------------------------------|
   E   E    Q         E   E   Q


15 S S S S S S S S S S S S S T T S S   S T T S S S S S S S S S S S S S S
|----------3-0-1---------1-5-3-1-0-1-|-0-1-0-----------------------------|
|--------1-----------0-3-------------|-1-----3-1-------------------------|
|--2-0-2---------2-0-----------------|-0-------------0-2-2---------0-2-3-|
|------------------------------------|-------------3-----0-3-2-0---------|
|--3---------------2-----------------|-1---------0-------1-------1-------|
|------------------------------------|-----------------------------------|
   E   E   Q       E   E   Q           E     E   E   E   E   E   E   E


17 S S S S S S S S E   S S E. S   S S S S S S S S T T T T S S S S S S
|-------------------------------|-----------------------------3-------|
|----------3---1---------3------|-------1-------1-----------3---3-----|
|--3-0-------3------------------|---0-2---------------0-2-3-------4---|
|--2---3-2-------2-3-----3-2--3-|-3-------1-0-1---0-3---------------3-|
|--3-------------1-0---0-1-3----|-------------------------------------|
|--------------------3----------|-------------------------------------|
   E   E   E   S S S S S S Q


19  T T T T T T T T T T T T T T T T T T T  T E S. T T T T T
|--------------0-1-3-0-----------5-6-5-6-10-8----0-1-0-----|
|--------0-1-3-------------5-6-8-----------------------3-1-|
|----0-2---------------5-7--------------------3------------|
|--2-------------------------------------------------------|
|----------------------------------------------------------|
|----------------------------------------------------------|


20 S T T S S E T T S S T T E S. T T T T T   T T T T T T T T E. S H
|--1-0---------------1-4-3-4----4-3-1-0-1-|-------6-5------------1---*|
|------3-1-3---------3-------0------------|-1-5-6-----8-5-6-5--6-----*|
|--2---------2-0---0-1--------------------|-2---------------3----2---*|
|----------3-----3------------------------|-----------------5----3---*|
|------------3-------2--------------------|-3---------------3--------*|
|-----------------------------------------|--------------------------*|
   E     S S Q       E     E Q              E       E       Q    H



Duration Legend
---------------

H - half;   Q - quarter;   E - 8th;   S - 16th;   T - 32nd;
+ - note tied to previous;    . - note dotted
Low melody durations appear below the staff

Misc Legend
-----------

 |  - bar
*|  - double bar (ending)

************************************************* *
* Generated using Power Tab Editor by Brad Larsen *
* http://powertab.guitarnetwork.org               *
***************************************************

Suggest correction
Give kudos to tab author, rate the tab!
1 2 3 4 5
comments
print report bad tab
guest
You may want to rate the tab now too:
select rating
Wanna post a correction for this tab? Suggest correction