Oops, an error
Loading. Please wait.

Bwv 1007 Cello Suite Prelude Tab

version 1
version 1

Whole song

Interactive

105,069 views 90 this week
6 commentsread comments
1 2 3 4 5
x 18
add to favorites
launch autoscroll
font size
0
reset
how to read this tab
guitar tuner
Autoscroll
slow
fast
+/-
esc
set tempo
stop
Help us to improve Ultimate-Guitar.com Take our survey!
×
Author
Difficulty
Tuning
intermediate
D A D G B E
Prelude from 1st Cello Suite BWV 1007
Johann Sebastian Bach

to hear it, search videos on youtube. Li Jie plays it so well.
enjoy!!

 
E|------2p-0-2---2-------2p-0-2---2---|------3p-2-3---3-------3p-2-3---3---|
B|------------------------------------|----0--------0---0---0--------0---0-|
G|----2--------2---2---2--------2---2-|------------------------------------|
D|-------------------0----------------|-------------------0----------------|
A|------------------------------------|------------------------------------|
D|--0---------------------------------|--0---------------------------------|

 
E|------3p-2-3---3-------3p-2-3---3---|------2p-0-2---2-------2p-0-2---2---|
B|----2--------2---2---2--------2---2-|----3--------3---3---3--------3---2-|
G|------------------------------------|------------------------------------|
D|-------------------0----------------|-------------------0----------------|
A|------------------------------------|------------------------------------|
D|--0---------------------------------|--0---------------------------------|


E|------2p-0-2---------------------------|------0---0---0-------0---0---0---|
B|-------------3-2h-3-0h-3-2h-3----------|----3---3---3---3---3---3---3---3-|
G|----2---------------------------2p-1---|--1---------------1---------------|
D|------------------------------4------4-|--2-------------------------------|
A|---------------------------------------|----------------------------------|
D|--0------------------------------------|----------------------------------|

 
E|----0-5p-4-5p-0---0---0---0----------|------------------------------------|
B|--2-------------3---2---3-----2p-0---|------3p-2-3---3-------3p-2-3---3---|
G|----------------------------2------2-|------------------------------------|
D|-------------------------------------|----4--------4---4---4--------4---4-|
A|--0----------------------------------|--2----------------2----------------|
D|-------------------------------------|------------------------------------|

 
E|---------------------------5p-4---0----|--------5---5-----------0----------|
B|---------0---------------0------7------|----0-----5-----5---0----------0---|
G|--------------------7p-6------------7h-|--6-----------6-------6---7p-6-----|
D|----6h-7---7p-6-4----------------------|------7-----------7--------------7-|
A|------------------7--------------------|--0--------------------------------|
D|--6------------------------------------|-----------------------------------|

  
E|-------------------2----------------|------0-2-3p-0---------0-2-3p-0-----|
B|--4---1p-0-1---4-------1p-0-1---4---|----0----------0-----0----------2-0-|
G|----2--------2---2---2--------2---2-|--0--------------2-0----------------|
D|------------------------------------|-------------------2----------------|
A|--0----------------2----------------|------------------------------------|
D|------------------------------------|--2---------------------------------|

 
E|----------0---0-----------0---0---|----------------0--------------------|
B|----2---2---2---2---2---2---------|-------0------------0----0-----------|
G|--3---3-----------3---3-----6---6-|--7p-6---7-6h-7---6-7p-6-----0-------|
D|----------------------------------|-----------4---------------7---4---0-|
A|--4---------------4---------------|---------------------------------7---|
D|----------4---------------4-------|--9----------------------------------|


E|----------------------------------|----------------------------------|
B|----------------------------------|--------0---------------0---------|
G|----0---0---0---0---0---0---0---0-|------5---5---5-------5---5---5---|
D|------7---7---7-------7---7---7---|----4-------4---4---4-------4---4-|
A|--4---------------4---------------|--5---------------5---------------|
D|----------------------------------|----------0---------------0-------|


E|----------------------------------|------3p-2-3---3-------3p-2-3---3---|
B|------0---0---0-------0---0---0---|----2--------2---2---2--------2---2-|
G|----0---2---0---0---0---2---0---0-|------------------------------------|
D|--0---------------0---------------|--0----------------0----------------|
A|----------------------------------|------------------------------------|
D|----------0---------------0-------|-----------0----------------0-------|

 
E|------2p-0--------------------------|----------------------------------|
B|-----------7------0-----------------|----------------------------------|
G|----2--------7p-6---2-0-------------|--------6-7---6-7-------6-7---6-7-|
D|------------------------4-2-0-------|------9-----9---------9-----9-----|
A|------------------------------4-2-0-|----7---------------7-------------|
D|--0---------------------------------|--6---------------6---------------|

 
E|----------------------------------|------------4-5--L---------------|
B|--------0-----0---------0-----0---|----------5----------------0-2-3-|
G|----------6-----6---------6-----6-|--------6--------------0-2-------|
D|------7-----7---------7-----7-----|------7------------2-4-----------|
A|----7---------------7-------------|----7----------------------------|
D|--5---------------5---------------|--5------------------------------|


E|---------------0-2-3p-0-----0-2-3-5-|--6p-5-4-5-5p-3-2-3-3p-0---------------|
B|--5p-2---0-2-3----------2-3---------|--5----------------------2p-0----------|
G|-------2----------------------------|--6---------------------------2------0-|
D|---------------0--------------------|-----------2--------------------2h-4---|
A|--0--------0-------0--------0-------|--------------------0------------------|
D|------------------------------------|---------------------------------------|


                     ^                                                        
E|----------0-2-3p-0-2-----------------|-------------0-2---4p-1-0-1-1p-0---0-|
B|--------2----------3-3---------------|-----------3-----3-3--------0----4---|
G|------2------------2---2p-0----------|---------2---------4--------1--------|
D|----2--------------0--------4p-0-2-4-|----0h-4-----------------------------|
A|--0----------------------------------|--0----------------------------------|
D|-------------------------------------|-------------------------------------|

 
E|-----------------------------0-4-5p-4-|--5----------0----------------------|
B|--5p-3-2h-3-3p-0---------0-3----------|----5------------2------------------|
G|-----------------1-----1--------------|------6p-4-6---2-----2p-1-----------|
D|-------------------4-2----------------|-------------------2------4-2-0-----|
A|--0-----------------------------------|--0-----------------------------4-2-|
D|--------------------------------------|------------------------------------|


E|----------0---------------0----------|------0--------------0--------------|
B|-----8p-7--------0---8p-7--------0---|----7--------0--------------0-------|
G|------------7p-6------------7p-6-----|--0-----7p-6-----0-----7p-6-----0---|
D|-------------------7---------------7-|---------------7---4----------7---4-|
A|--0------------------0---------------|--0---------------------------------|
D|-------------------------------------|------------------------------------|


E|-------------0---0---0---0---0---0-|----0---0---0---0---0---0---0---0-|
B|----3p-2-0-2-------0---2---3---0---|--2-------3---0---2-------3---0---|
G|---------------2-------------------|------2---------------2-----------|
D|-----------------------------------|----------------------------------|
A|--0--------------------0-----------|--0-------------------0-----------|
D|-----------------------------------|----------------------------------|


    ^                            harm*    
E|----0---0---0---0---0---0----0------0-|
B|--2-----------------------------------|
G|------2---4---6---7---9---11----------|
D|--------------------------------------|
A|--0------------------------------12*--|
D|--------------------------------------|


                  harm*                       
E|----0----0----0------0----0----0----0----0-|
B|-------------------------------------------|
G|--9---11---12----------11---12---14---11---|
D|-------------------------------------------|
A|------------------12*----------------------|
D|-------------------------------------------|


     ^                      >               ^                   >            
E|-----0----0----0---0----0---0----0---0-|----0---0---0---0---0---0---0---0-|
B|---------------------------------------|----------------------------------|
G|--12---11---12---9---11---9---11---7---|--9---7---9---6---7---6---7---6---|
D|---------------------------------------|----------------------------------|
A|---0----------------------0------------|--0-------------------0-----------|
D|---------------------------------------|----------------------------------|


    ^                                                                      
E|----0-----------------------------|---------------5---6---7----8----9---|
B|--------0-1---2---3---4---5---6---|--7---8----9---7---8---9---10---11---|
G|--6-------2---3---4---5---6---7---|--8---9---10---5---6---7----8----9---|
D|------7---1---2---3---4---5---6---|--7---8----9-------------------------|
A|--0---------0---0---0---0---0---0-|----0---0----0---0---0---0----0----0-|
D|----------------------------------|-------------------------------------|


     ^                  ^                  
E|--10-------10---10---10-------10---10---|
B|---7-7---7----7----7--7-7---7----7----7-|
G|---7------------------7-----------------|
D|---7---7--------------7---7-------------|
A|---0------------------0-----------------|
D|----------------------------------------|


     ^                  ^                    ^               ^                
E|--10-------10---10---10-------10---10---|--9-------9---9---9-------9---9---|
B|---8------------------8-----------------|--8---------------8---------------|
G|---9-9---9----9----9--9-9---9----9----9-|--9-9---9---9---9-9-9---9---9---9-|
D|---7---7--------------7---7-------------|--7---7-----------7---7-----------|
A|---0------------------0-----------------|--0---------------0---------------|
D|----------------------------------------|----------------------------------|


     ^
E|--10----------------||
B|---7----------------||
G|---7----------------||
D|---7----------------||
A|---0----------------||
D|---0----------------||



************************************

| h  Hammer-on
| p  Pull-off

************************************
Suggest correction
comments
print report bad tab
6 comments total. Showing first comments.
+1 reply
NKHero07 10 Jul 04, 2007 02:15 PM

man that was perfect. i actaully saw the youtube vid first and li jei is amazing. good job. this deserves 5 stars

0 reply
ades 42 Dec 06, 2007 12:12 PM

Shouldn't this be in DADGBe tuning?

0 reply
ades 42 Dec 06, 2007 12:14 PM

Ignore my comment, I just saw that you had written DADGBe already, only it was "hidden" :)
Great tab.

guest
You may want to rate the tab now too:
select rating
Wanna post a correction for this tab? Suggest correction