Oops, an error
Loading. Please wait.

Cello Suite No 1 - Prelude Tab

version 1
version 1

Whole song

Interactive

461,819 views 1,449 this week
11 commentsread comments
1 2 3 4 5
excellent!
x 143
add to favorites
launch autoscroll
font size
0
reset
how to read this tab
guitar tuner
Tab Pro tools
  • play this tab
  • loop segment
  • change instrument
  • show fretboard
  • metronome
×
Best way to learn
"Cello Suite No 1 - Prelude"
Autoscroll
slow
fast
+/-
esc
set tempo
stop
Contributor
Since this song is written for cello, some of the notes were too low to play on guitar, 
I put them an octave up to keep it in the original key.

Cello Suite No. 1 - Prelude
Johann Sebastian Bach
4/4
Key: G Major


   |       |       |       |         |       |       |       |
e|---------------------------------|---------------------------------|
B|-----0---0---0-------0---0---0---|-----1-0-1---1-------1-0-1---1---|
G|-------2---------------2---------|---------------------------------|
D|---0-------0---0---0-------0---0-|---2-------2---2---2-------2---2-|
A|---------------------------------|---------------------------------|
E|-3---------------3---------------|-3---------------3---------------|


   |       |       |       |         |       |       |       |
e|---------------------------------|---------------------------------|
B|-----1-0-1---1-------1-0-1---1---|---------0---0-----------0---0---|
G|---------------------------------|---0-2-0---0---0---0-2-0---0---0-|
D|---4-------4---4---4-------4---4-|---------------------------------|
A|---------------------------------|---------------------------------|
E|-3---------------3---------------|-3---------------3---------------|


   |       |       |       |         |       |       |       |
e|---------------------------------|---------------------------------|
B|-----0---0-----------------------|---------------------------------|
G|-------2---0---0---0---0---------|---0-2-0-2-0-2-0---0-2-0-2-0-2-0-|
D|---2---------4---2---4-----0-----|---------------------------------|
A|-------------------------2---4-2-|-4---------------4---------------|
E|-3-------------------------------|---------------------------------|


   |       |       |       |         |       |       |       |
e|---------------------------------|---------------------------------|
B|-----3-2-3-----------------------|---------------------------------|
G|---2-------2-0-2---2-0-2---------|-----0---0---0-------0---0---0---|
D|-4---------------4-------0-4-2-0-|-------4---------------4---------|
A|---------------------------------|---2-------2---2---2-------2---2-|
E|---------------------------------|-0---------------0---------------|


   |       |       |       |         |       |       |       |
e|---------------------------------|---------------------------------|
B|-----------------------3-2-0-----|-------3---3---------------------|
G|-----------------0-----------2-0-|---------2-----2-------2-0-------|
D|-----0-2-0---------4-2-----------|-4-2-0-------4---0-2-4-----4-2-0-|
A|---4-------4-2-0-----------------|---------------------------------|
E|-0-------------------------------|---------------------------------|


   |       |       |       |         |       |       |       |
e|---------------------------------|---------------------------------|
B|---------------------------------|-------0-1-------------0-1-------|
G|-1-----------1---1-----------1---|-----2-----2---------2-----2-----|
D|---0-3-2-3-0---0---0-3-2-3-0---0-|---2---------2-0---2---------4-2-|
A|---------------------------------|-3---------------3---------------|
E|---------------------------------|---------------------------------|


   |       |       |       |         |       |       |       |
e|---------------------------------|---------------------------------|
B|---------------------------------|---------------------------------|
G|---------2---2-----------2---2---|-0-----0---0-2---0---------------|
D|-1-4-1-4---4---4-1-4-1-4---4---4-|---4-2---4-----4---4-2-0---------|
A|---------------------------------|-------------------------3-2-0---|
E|---------------------------------|-------------------------------3-|


   |       |       |       |         |       |       |       |
e|---------------------------------|---------------------------------|
B|---------------------------------|---------------------------------|
G|---------------------------------|---------------------------------|
D|-----0---0---0-------0---0---0---|-----3-2-3---3-------3-2-3---3---|
A|---3---3---3---3---3---3---3---3-|---2-------2---2---2-------2---2-|
E|-2---------------2---------------|-3---------------3---------------|


   |       |       |       |         |       |       |       |
e|---------------------------------|---------------------------------|
B|---------------------------------|-------0---------------0---------|
G|---------------------------------|-----5---5---5-------5---5---5---|
D|-----2-0-2---2-------2-0-2---2---|---4-------4---4---4-------4---4-|
A|---3-------3---3---3-------3---3-|---------------------------------|
E|-3---------------3---------------|-3---------------3---------------|


   |       |       |       |         |       |       |       |
e|---------------------------------|---------------------------------|
B|-----0---0-----------------------|---------------------------------|
G|-------2---0---------------------|---------0-----0---------0-----0-|
D|---4---------4-2-0-------------0-|-1---2-4---2-4---1---2-4---2-4---|
A|-------------------3-2-0---------|---0---------------0-------------|
E|-3-----------------------3-2-0---|---------------------------------|


   |       |       |       |         |       |       |       |
e|---------------------------------|---------------------------------|
B|---------------------------------|---------0-2-3~~~~---------------|
G|---------------------------------|-------------------------------0-|
D|-2---0-2-4-0-2-4-2---0-2-4-0-2-4-|-2---0-4-----------------0-2-4---|
A|---0---------------0-------------|---0---------------0-2-3---------|
E|---------------------------------|---------------------------------|


   |       |       |       |         |       |       |       |
e|---------------------------------|---------------------------------|
B|---------------0-1---------0-1-3-|-4-3-2-3-3-1-0-1-1---------------|
G|-2---------0-2-----2---0-2-------|-------------------2-------------|
D|---4-0-2-4-----------4-----------|---------------------4-2-0-------|
A|---------------------------------|---------------------------0-2-3-|
E|---------------------------------|---------------------------------|


   |       |       |       |         |       |       |       |
e|---------------------------------|---------------------------------|
B|-----------0-1---0---------------|-------------0---2---------------|
G|---------2-----2---0-------------|---------0-2---0---3-2-3-3-2-1-3-|
D|-0---0-4-------------0-----------|-0-----0-------------------------|
A|---0-------------------3-2---0-2-|-----2---------------------------|
E|---------------------------3-----|---3-----------------------------|


   |       |       |       |         |       |       |       |
e|---------------------------------|---------------------------------|
B|---------------------------2-3-2-|-3-------------------------------|
G|-2-0---0-0-------------0-2-------|---2-------2---------------------|
D|-----4-----2---------2-----------|-----4-2-4---0-4---0-------------|
A|-------------4-2-0-4-------------|-----------------0---4-2-0-------|
E|---------------------------------|---------------------------3-2-0-|


   |       |       |       |         |       |       |       |
e|---------------------------------|---------------------------------|
B|-----1-0-----------1-0-----------|---0-----------------------------|
G|---------2-0-----------2-0-------|-----2-0-----------2-0-----------|
D|-0~~~--------4-2-0---------4-2-0-|---------4-2-0---------4-2-0-----|
A|---------------------------------|-3-------------3-2-----------3-2-|
E|---------------------------------|---------------------------------|

   |       |       |       |         |       |       |       |
e|---------------------------------|---------------------------------|
B|---------------------------------|---------------------------------|
G|---0-------2---2---2---2-0-2---2-|---2---2-0-2---2---2---2-0-2---2-|
D|-----4-2-4---0---2---4-------2---|-4---0-------2---4---0-------2---|
A|-0-------------------------------|---------------------------------|
E|---------------------------------|---------------------------------|


   |       |       |       |         |       |       |       |
e|---------------------------------|---------------------------------|
B|-------------------------0-------|-----0---1-------0---1---3---0---|
G|---2---2---2---2-0-2-2-2---2---2-|-2-2---2---2---2---2---2---2---2-|
D|-4---0---2---4---------------0---|-------------0-------------------|
A|---------------------------------|---------------------------------|
E|---------------------------------|---------------------------------|


   |       |       |       |         |       |       |       |
e|---------------------------------|---------------------------------|
B|-1---0---1-------0-------0-------|---------------------------------|
G|---2---2---2-2-2---2-2-2---2-0-2-|-2-2-0-2-2-2---2-0-2---2-0-2---2-|
D|---------------------------------|-------------4-------4-------2---|
A|---------------------------------|---------------------------------|
E|---------------------------------|---------------------------------|


   |       |       |       |         |       |       |       |
e|---------------------------------|---------------------0---1---2---|
B|---------------------------------|-0---1---2---3---4---------------|
G|---2-------------0---1---2---3---|---------------------------------|
D|-4---0-2-3-0-4-0---0---0---0---0-|---0---0---0---0---0---0---0---0-|
A|---------------------------------|---------------------------------|
E|---------------------------------|---------------------------------|


   |       |       |       |         |       |       |       |
e|-3-------3---3---3-------3---3---|-3-------3---3---3-------3---3---|
B|---0---0---0---0---0---0---0---0-|---------------------------------|
G|---------------------------------|---2---2---2---2---2---2---2---2-|
D|-----0---------------0-----------|-----0---------------0-----------|
A|---------------------------------|---------------------------------|
E|---------------------------------|---------------------------------|


   |       |       |       |         |       |       |       |
e|-2-------2---2---2-------2---2---|-3~~~~~~~~~~~~~~~~~~~~~~~~~~~~~~-|
B|---1---1---1---1---1---1---1---1-|-0~~~~~~~~~~~~~~~~~~~~~~~~~~~~~~-|
G|---------------------------------|---------------------------------|
D|-----0---------------0-----------|---------------------------------|
A|---------------------------------|---------------------------------|
E|---------------------------------|-3~~~~~~~~~~~~~~~~~~~~~~~~~~~~~~-|
comments
print report bad tab
11 comments total. Showing first comments.
0 reply
D&DLover wrote on October 29 2009, 09:51 pm

Excellent tab. Thanks a lot!

+4 reply
Aidenfan4eva wrote on November 3 2009, 08:26 am

just thought id add... i took your tab and tabbed it into guitar pro, is it okay with you if i post it to this site, giving you credit for the original?

0 reply
kenny102 wrote on December 12 2009, 09:00 pm

omfgzzz dude!!!! i've been lookin for this song for a month!i LOVE it!! at first i couldn't find the name of it, but finally i did (obviously)and i thought well no one would tab this! but you did, and you rock man!!! two thumbs up into tha sky!

I want to post or [tab]
guest
You may want to rate the tab now too:
select rating
Please do not post tabs as comments. Select "correction" instead!