Oops, an error
Loading. Please wait.

Minuet In D Minor Tab

version 2
version 2

Whole song

  • There is a tab of this song already, however it do... Show more
43 views 1 this week
1 commentread comment
1 2 3 4 5
2 more votes to show rating
add to favorites
launch autoscroll
font size
0
reset
how to read this tab
guitar tuner
Autoscroll
slow
fast
+/-
esc
set tempo
stop
Help us to improve Ultimate-Guitar.com Take our survey!
×
Author
About this tab version
There is a tab of this song already, however it does not incorporate the base clef. Its in standard tuning, and no capo required. Hail Hydra. Was this info helpful? Yes No
e|---1-0-----|-------|-------------|---------|-------------|
B|-------3-2-|-3-----|-------------|---------|-------3-1---|
G|-2---------|---2-3-|-----0-3-2-0-|---------|---3-2-------|
D|-0-----2---|-3-----|---2---------|-3-2-3-0-|-3-2---------|
A|-----------|-------|-4-------0---|-5-----5-|-5-----------|
E|-----------|-----3-|-5-----------|---------|-------2-----|

e|-1-0-------|--------|------------|
B|-----3-1---|---1----|------------|
G|---------3-|2-3-----|------------| 
D|-----------|-----3-2|-3--3-2-0---| 
A|-0---------|-----0-3|----------4-|
E|-------0---|1-------|-1----------|

e|---1-0-----|-------|-------------|---------|-------------|
B|-------3-2-|-3-----|-------------|---------|-------3-1---|
G|-2---------|---2-3-|-----0-3-2-0-|---------|---3-2-------|
D|-0-----2---|-3-----|---2---------|-3-2-3-0-|-3-2---------|
A|-----------|-------|-4-------0---|-5-----5-|-5-----------|
E|-----------|-----3-|-5-----------|---------|-------2-----|

e|-1-0-------|--------|---------|
B|-----3-1---|---1----|---------|
G|---------3-|2-3---------------| 
D|-----------|-----3-2|-3-------| 
A|-0---------|-----0-3|---3-----|
E|-------0---|1-------|-1---1---|

e|-5----5-3-1-|-0-1-3------|-1---1-0-------0-|
B|------------|-1------1---|---------3-2-3---|
G|--------3---|---------0--|-----------------|
D|-3--3-------|----------2-|-0--0------------| x2
A|----0-------|-----------3|----3--2---0-----|
E|------------|------------|-----------------|

e|---------0-1-|3-0---6-5-3-|1-0---0-------|
B|---0-2-3-----|----2-------|3----3---2-3--|
G|-2-----------|------------|------0-------|
D|-5---2-------|----2-------|---------2-0--| 
A|---------4---|0-------4---|--------------|
E|-------------|------------|--------------|
Suggest correction
Give kudos to tab author, rate the tab!
1 2 3 4 5
comments
print report bad tab
1 comment total.
0 reply
guitarfanboy 10 Sep 08, 2016 07:46 PM

A delightful piece with an exquisite tab.

guest
You may want to rate the tab now too:
select rating
Wanna post a correction for this tab? Suggest correction