Oops, an error
Loading. Please wait.

Minuet In G tab

version 3
version 3

Whole song

Interactive

6,618 views 27 this week
no commentswrite comment
1 2 3 4 5
x 4
add to favorites
×
Save as Personal and add changes to this tab that will be seen only by you. Learn more ›
×
You can save this tab as Personal to edit and correct it or add notes. All changes will be seen only by you. Learn more »
launch autoscroll
font size
0
reset
how to read this tab
guitar tuner
edit
Autoscroll
slow
fast
+/-
esc
set tempo
stop
                                  Minuet
                                  ------

                                    by

                                J. S. Bach

3/4 time, andantino (moderate to fast speed)
Standard Tuning, strings shown below are high e to low E in that order.
Play Part I twice, then Part II twice.

(Part I)


  (Quarter notes)
  |     |     |      |     |     |      |     |     |      |     |     |
|------------------|------------------|-0-----------0--2-|-3----------------|
|-3-----------0--1-|-3----------------|-------1--3-------|------------------|
|-------0--2-------|-------0-----0----|------------------|-------0-----0----|
|------------------|------------------|------------------|------------------|
|-------------0----|-2----------------|-3----------------|-2----------------|
|-3----------------|------------------|------------------|------------------|
  4        2     1   4                  3     1  4     3   4
  3                  2                                     2

|------------------|------------------|------------------|------------------|
|-1-----3--1--0----|-0-----1--0-------|-------------0----|------------------|
|----------------2-|-------------2--0-|-------0--2-----0-|-4p2--------------|
|------------------|------------------|-4----------------|-0-----0----------|
|-0----------------|------------------|-5-----2----------|----------3--2--0-|
|------------------|-3----------------|-------------3----|------------------|
  1     4  1     2   3     1     1      3     1  2  3      4 1      3  2
                                        4

|------------------|------------------|-0-----------0--2-|-3----------------|
|-3-----------0--1-|-3----------------|-------1--3-------|------------------|
|-------0--2-------|-------0-----0----|------------------|-------0-----0----|
|------------------|------------------|------------------|------------------|
|-2-----------0----|-------2----------|-3----------------|-2-----3--2--0----|
|------------------|-3-----------3----|------------------|----------------3-|
  4        2     1   4     2     3      3     1  4     3   4     3  2     3
  2                  3                                     2

|------------------|------------------|------------------|------------------|
|-1-----3--1--0----|-0-----1--0-------|-------0----------|-0----------------|
|----------------2-|-------------2--0-|-2--------2--0----|------------------|.
|------------------|------------------|-------0--------4-|------------------|.
|-0----------------|-------------2----|-3-----------5----|------------------|
|-------------2----|-3----------------|------------------|-3-----------3----|
  1     4  1  2  3   4     1     3      3        1  4  3   1          3/1
                                 2      4

(Part II)


  |     |     |      |     |     |      |     |     |      |     |     |
|-7-----3--5--7--3-|-5-----------2----|-3-----0--2--3----|------------------|
|------------------|-------3--5-----3-|----------------3-|-2-----0h2--------|
|-0----------------|------------------|-------0----------|-2-----------2----|
|------------------|-4----------------|-2-----------2----|------------------|
|------------------|------------------|------------------|------------------|
|------------------|------------------|------------------|------------------|
  4     1  3  4  1   3     1  3  1  2   3        2  3  2   2       2   1
                     2                  1           1      1

|-------------0--2-|-3-----2-----0----|-2----------------|------------------|
|----0--2--3-------|------------------|-------------2----|-3----------------|
|-2----------------|------------------|-------2----------|------------------|
|------------------|-------0----------|-0----------------|-0-----0----------|
|-0----------------|-2-----------4----|-------------0----|-------------3----|
|------------------|------------------|-------2----------|------------------|
  1     2  3     2   3     2     4      3     2     3      4           3
                     1                        1

|------------------|-0----------------|------------------|------------------|
|-3----------------|------------------|-3-----1-----0----|------------------|
|-------0-----0----|-------0-----0----|------------------|-2--0-----0--2----|
|-------0--4-------|-------2--4-------|------------------|-------4----------|
|-2-----------2----|-3-----------3----|-2-----0----------|-5----------------|
|------------------|------------------|-------------3----|------------------|
  4        4  2      3     2  4  3      4     1            1     3     2
  2                                     2                  4

|------------------|------------------|------------------|------------------|
|----------------0-|-1-----0----------|-0--3-------------|------------------|
|----------0h2-----|-------0-----2----|-0-----0----------|-0----------------|.
|-0h2---4----------|-2-----------4----|-------------4----|-------0----------|.
|-5----------------|------------------|-------2-----5----|------------------|
|------------------|------------------|------------------|-3-----------3----|
  4 1   3    1       1           1         3  1     3     2/1         2/1
                                 4                  4


******************************************************************************
******************************************************************************

Minuet in G, Anh 114 (Anna Magdalena) - attrib Christian Petzold (1677-1733)

tab by The_S - hermanss@iprimus.com.au

[ measures & timing added by Weed 1 Oct 02 - weed@wussu.com ]


   |   |   |     |   |   |     |   |   |     |   |   |
e|-0-----------|-0-----------|-2-----0-2-4-|-5-----------|
B|-2-----0-2-3-|-------------|-----3-------|-------------|
G|-2---2-------|-----2---2---|-------------|-----2---2---|
D|-------------|-------------|-0-----------|-------------|
A|-0-------2---|-4-----------|-------------|-4-----------|
E|-------------|-------------|-------------|-------------|

   |   |   |     |   |   |     |   |   |     |   |   |
e|-----0-------|-------------|-------------|-------------|
B|-3-----3-2-0-|-2---3-2-0---|-------0-2---|-2---0-------|
G|-------------|-----------2-|-1---2-----2-|-------------|
D|-------------|-------------|-2-----------|-2-----0-----|
A|-2-----------|-0-----------|-----4---0---|---------4-2-|
E|-------------|-------------|-------------|-----0-------|

   |   |   |     |   |   |     |   |   |     |   |   |
e|-0-----------|-0-----------|-2-----0-2-4-|-5-----------|
B|-------0-2-3-|-------------|-----3-------|-------------|
G|-----2-------|-----2---2---|-------------|-----2---2---|
D|-------------|-------------|-0-----------|-----0-------|
A|-0-------2---|-0---4---0---|-------------|-4-----4-2-0-|
E|-------------|-------------|-------------|-------------|

   |   |   |     |   |   |     |   |   |     |   |   |
e|-----0-------|-------------|-------------|-------------|
B|-3-----3-2-0-|-2---3-2-0---|-0---2-0-----|-------------|
G|-------------|-----------2-|---------2-1-|-2-----------|
D|-------------|-------------|-0---2-------|-------------|
A|-2-----------|-0-------4---|-------------|-0-------0---|
E|---------4---|-------------|---------0---|-------------|

   |   |   |     |   |   |     |   |   |     |   |   |
e|-9-------9---|-7-------4---|-5---2-4-5-0-|-------------|
B|-----1012--10|-----5-7---5-|-------------|-4---2-4-0---|
G|-------------|-------------|-------------|-------------|
D|-------------|-------------|-------------|-------------|
A|-0-----------|-------------|-----0-------|-2-------2---|
E|-------------|-4-----------|-2-------2---|-------------|

   |   |   |     |   |   |     |   |   |     |   |   |
e|-------0-2-4-|-5---4---2---|-4-----------|-0-----------|
B|-0-2-4-------|-------------|-----0---4---|-------------|
G|-------------|-------------|-------------|-------------|
D|-------------|-----2---1---|-2-----------|-2-------0---|
A|-2-----------|-4-----------|---------2---|-------------|
E|-------------|-------------|-----4-------|-----0-------|

   |   |   |     |   |   |     |   |   |     |   |   |
e|-0-----------|-2-----------|-0-----------|-------------|
B|-------------|-------------|-----3---2---|-0-------0---|
G|-----2-1-2---|-----2-1-2---|-------------|---2-1-2-----|
D|-----2-------|-0---4---0---|-------------|-2-----------|
A|-4-------4---|-------------|-4---2---0---|-------------|
E|-------------|-------------|-------------|-------------|

   |   |   |     |   |   |     |   |   |     |   |   |
e|-------------|-------------|---0---------|------------||
B|---------0-2-|-3---2---0---|-2-----------|------------||
G|-----1-2-----|-------------|-----2---1---|-2----------||
D|-2-4---------|-------------|-------------|-2----------||
A|-------------|-----0-------|-0---4-------|-4-------0--||
E|-0-------4---|-2-------4---|---------0---|-5---0------||

            
            
Suggest correction
Creating personal tab
Creating personal tab
You can edit any tab online and save it as your Personal.

You can edit, replace or remove any tab part or add personal notes – all changes will be seen only by you.

Personal tabs can be accessed anytime from any device, even offline.
Learn more »
comments
print report bad tab
guest
Wanna post a correction for this tab? Suggest correction