Oops, an error
Loading. Please wait.

Sheep May Safely Graze Tab

version 1
version 1

Whole song

Interactive

6,693 views 6 this week
1 commentread comment
1 2 3 4 5
excellent!
x 4
add to favorites
launch autoscroll
font size
0
reset
how to read this tab
guitar tuner
Tab Pro tools
  • play this tab
  • loop segment
  • change instrument
  • show fretboard
  • metronome
×
Best way to learn
"Sheep May Safely Graze"
Autoscroll
slow
fast
+/-
esc
set tempo
stop
Contributor
Tabbers playing skills
advanced
----------------------------------------------------------------------------
              Sheep May Safely Graze - Johann Sebastian Bach
----------------------------------------------------------------------------


Tabbed by: Dave S. 
Email: prime-prine@hotmail.com

Tuning: (Standard) Drop D

                            

E||------------------------|----------------------|------------------------|
B||------------------------|-------0----0----3----|------------------------|
G||--2----2-----2----2-----|--2----0----0----4----|--0----0-----0----0-----|
D||--4-------4--4-------4--|--4-------------------|--2-------2--2-------2--|
A||------------------------|----------------------|------------------------|
D||--0----------0----------|--0---------0---------|--0----------0----------|

  
-----------------0---|--------0h-2-----2--0-----|--------0h-2-----2--0-----|
-------2----2--------|-3------------3-----------|-3------------3-----------|
--0---------0--------|-----------------------2--|-----------------------2--|
--2------------------|------0-------------------|------0-------------------|
---------------------|--------------------0-----|-2------------------0-----|
--0---------0--------|-0------------0-----------|--------------0-----------|

  
-------2h-3h-5--2-----0-----|-------2h-3h-5--2-----0-----|
--3----------------3-----2--|--3----------------3-----2--|
-------0--------------------|-------0--------------------|
----------------------------|----------------------------|
--2-------------0-----0-----|--2-------------0-----0-----|
----------------------------|----------------------------|

    
------------2----0----|--0--------------2----|--3---------7----5----|
--3-------------------|--2-------------------|--2-------------------|
--2-------------------|--0-------------------|--2-------------------|
--4---------0---------|------------2---------|-------2--------------|
-------0--------------|-------0--------------|--0---------0---------|
--0-------------------|--0-------------------|----------------------|

   
--2---------0---------|--2-------------------|--0-------------2----|
--3--------------3----|-------3----2----0----|--0------------------|
-------2--------------|----------------------|--1--------2---------|
--0-------------------|----------------------|--0-------------0----|
------------4---------|--2---------0---------|-----------4---------|
----------------------|----------------------|---------------------|

    
----------------------|---------------------|----------------------|
--2---------0---------|---------------------|------------1----0----|
--2---------1------2--|--2------------------|--2---------2---------|
-------2----0---------|-------2-------------|--4---------0---------|
----------------------|--0---------0--------|-------0--------------|
--2---------2---------|---------------------|--0-------------------|

   
----------------------|------------2----0----|----------------------|
--0--------------2----|--3---------3---------|--2---------0---------|
--0---------0---------|--0---------0---------|--0--------------2----|
-------0--------------|-------2--------------|-------2--------------|
----------------------|----------------------|--0---------0---------|
--5-------------------|--2-------------------|----------------------|

   
--5--------7----5----|--5---------0---------|--5--------7----5----|
--7--------0---------|-------7---------3----|--7--------0---------|
--7--------0---------|----------------------|--7--------0---------|
-----------0---------|------------0---------|-----------0---------|
---------------------|----------------------|---------------------|
--0------------------|--0-------------------|--0------------------|

    
--5---------0---------|--3-------------5----|--2----0---------0----|
-------7---------3----|--0--------2---------|--3---------3---------|
----------------------|--0--------0---------|--2---------4---------|
------------0---------|---------------------|--0-------------------|
----------------------|-----------0---------|----------------------|
--0-------------------|--2------------------|------------5---------|

   
---------------------|------------------------|----------------------|
--2-------------3----|--3---------------------|-------0----0----3----|
--2------------------|-------2-----2----2-----|--2----0----0----4----|
--2------------------|----------4--4-------4--|--4-------------------|
--0--------0---------|------------------------|----------------------|
---------------------|--0----------0----------|--0---------0---------|

     
--7--------------0----|--5-------------7----|--2--------0---------|
--0----8----7---------|--7--------0---------|--3--------2----3----|
--0---------6---------|--7--------0---------|--2--------0---------|
----------------------|---------------------|---------------------|
----------------------|---------------------|--0--------0---------|
--0---------0---------|--0------------------|---------------------|

 
------------------------|----------------------|------------------------|
--3---------------------|-------0----0----3----|------------------------|
--2----2-----2----2-----|--2----0----0----4----|--0----0-----0----0-----|
--4-------4--4-------4--|--4-------------------|--2-------2--2-------2--|
------------------------|----------------------|------------------------|
--0----------0----------|--0---------0---------|--0----------0----------|

   
-----------------0--|---------0h-2-----2--0----|---------0h-2-----2--0-----|
-------2----2-------|--3------------3----------|--3------------3-----------|
--0---------0-------|------------------------2-|------------------------2--|
--2-----------------|-------0------------------|-------0-------------------|
--------------------|---------------------0----|--2------------------0-----|
--0---------0-------|--0------------0----------|---------------0-----------|

  
-------2h-3h-5--2-----0-----|-------2h-3h-5--2-----0-----|
--3----------------3-----2--|--3----------------3-----2--|
-------0--------------------|-------0--------------------|
----------------------------|----------------------------|
--2-------------0-----0-----|--2-------------0-----0-----|
----------------------------|----------------------------|

                  
------------2----0----|--0--------------2----|--2----------------||
--3-------------------|--2-------------------|--3----------------||
--2-------------------|--0-------------------|--2----------------||
--4---------0---------|------------2---------|--0----------------||
-------0--------------|-------0--------------|-------------------||
--0-------------------|--0-------------------|--0----------------||
comments
print report bad tab
1 comment total.
0 reply
emrose2096 wrote on June 9 2013, 09:49 am

this is a great tab!! thank's for posting it, i use it all the time!

I want to post or [tab]
guest
You may want to rate the tab now too:
select rating
Please do not post tabs as comments. Select "correction" instead!