Oops, an error
Loading. Please wait.

Hungarian Dance No 5 Tab

version 2
version 2

Whole song

Interactive

14,231 views 81 this week
no commentswrite comment
1 2 3 4 5
2 more votes to show rating
add to favorites
launch autoscroll
font size
0
reset
how to read this tab
guitar tuner
Autoscroll
slow
fast
+/-
esc
set tempo
stop
Help us to improve Ultimate-Guitar.com Take our survey!
×
Author
Difficulty
intermediate
Johannes Brahms - Hungarian Dance No.5

tabbed by TheArrow28

E|--------------------------------------------------------------|
B|--------6-----------5-----------------------------------------|
G|-----7-----7--6--7-----7--------5--7--------------------------|
D|--7-----------------------7--8--------7--5--------------5-----|
A|--------------------------------------------8--8--7--7-----5--|
E|--------------------------------------------------------------|



E|-----------5-----------------------------------------------------------------------|
B|--------6-----6--5--6--8--6--------------------------------------------------------|
G|-----7-----------------------------5--7-----------5--------------------------------|
D|--7--------------------------7--8--------8--7--8-----7--5--7--8--5-----5--7--------|
A|--------------------------------------------------------------------8--------8-----|
E|-----------------------------------------------------------------------------------|



E|--------------------------|
B|--------------------------|
G|-----------------------7--|
D|--5--------------7--------|
A|-----8--8--7--7-----5-----|
E|--------------------------|



E|--5--5--6--5--5-----------5--------5-----|
B|-----------------8--7--8-----8--7-----8--|
G|-----------------------------------------|
D|-----------------------------------------|
A|-----------------------------------------|
E|-----------------------------------------|



E|--------5--------------------------------|
B|--8--8-----8--8--6--5--6--8--6--5--8--6--|
G|-----------------------------------------|
D|-----------------------------------------|
A|-----------------------------------------|
E|-----------------------------------------|



E|--------------------------------------------|
B|--5--5--8--6--5--5-----------5--------5-----|
G|--------------------7--6--7-----7--6-----7--|
D|--------------------------------------------|
A|--------------------------------------------|
E|--------------------------------------------|



E|-----------------------------------------|
B|--------------------------5--------5-----|
G|--------4--6--7--7--6--7-----7--6-----7--|
D|--7--7-----------------------------------|
A|-----------------------------------------|
E|-----------------------------------------|



E|--10-----------------------------------10---------------------------------|
B|------10--10--10--10--8--7--8--10--10------10--10--10--10--8--7-----------|
G|-----------------------------------------------------------------9--7--7--|
D|--------------------------------------------------------------------------|
A|--------------------------------------------------------------------------|
E|--------------------------------------------------------------------------|



E|------------------------------10------|
B|--7--8--7-----7--7--8--8--10------10--|
G|-----------9--------------------------|
D|--------------------------------------|
A|--------------------------------------|
E|--------------------------------------|



E|-------------------------------------|
B|--7--8--7-----10--8--7--------10-----|
G|-----------9------------9--7------7--|
D|-------------------------------------|
A|-------------------------------------|
E|-------------------------------------|

if u have any requests here is my e-mail: thearrow28@yahoo.com
Suggest correction
Give kudos to tab author, rate the tab!
1 2 3 4 5
comments
print report bad tab
guest
You may want to rate the tab now too:
select rating
Wanna post a correction for this tab? Suggest correction