Oops, an error
Loading. Please wait.

Lullaby Tab

version 2
version 2

Interactive

4,491 views 15 this week
1 commentread comment
1 2 3 4 5
worth learning
x 4
add to favorites
launch autoscroll
font size
0
reset
how to read this tab
guitar tuner
Autoscroll
slow
fast
+/-
esc
set tempo
stop
Help us to improve Ultimate-Guitar.com Take our survey!
×
Author
           Brahms Lullaby


My first tab im 100% sure this is correct


1----------------------------------------------------------|
2----------------------------------------------------------|
3------------------------0---------------------------------|
4-------0--------0----0-----4--2--2--0---------------------|
5--2-2------2-2------2-------------------------------------|
6----------------------------------------------------------|

1------------------------------------------3----0----------|
2------------------------------------------------1---3--0--|
3--------------------------------0----00-----------------0-|
4-------------------------42-0-4---------------------------|
5---0-2-3-0--00-2--3----03---------------------------------|
6----------------------------------------------------------|

1-------0-------------3--0---------------------------------|
2---1-3----0--3-----------1-3----0----1-0------------------|
3-----------------00--------------0-------2-0--------------|
4----------------------------------------------------------|
5----------------------------------------------------------|
6----------------------------------------------------------|
Suggest correction
comments
print report bad tab
1 comment total.
0 reply
Westy543 10 wrote on August 28 2010, 04:49 am

Dunno, maybe I'm wrong, but the last line just sounds better with the first open B not played.


1-------0-------------3--0---------------------------------|
2---1-3-----3-------------1-3----0----1-0------------------|
3-----------------00--------------0-------2-0--------------|
4----------------------------------------------------------|
5----------------------------------------------------------|
6----------------------------------------------------------|


In any event, spot on, A+ tab.

guest
You may want to rate the tab now too:
select rating
Please do not post tabs as comments. Select "correction" instead!