Oops, an error
Loading. Please wait.

Lullaby Tab

version 3
version 3

Interactive

2,476 views 6 this week
no commentswrite comment
1 2 3 4 5
please rate
add to favorites
launch autoscroll
font size
0
reset
how to read this tab
guitar tuner
Autoscroll
slow
fast
+/-
esc
set tempo
stop
Help us to improve Ultimate-Guitar.com Take our survey!
×
Author
Difficulty
intermediate
#----------------------------------PLEASE NOTE---------------------------------#
#This file is the author's own work and represents their interpretation of the #
#song. You may only use this file for private study, scholarship, or research. #
#------------------------------------------------------------------------------##


Gtr I (D# A D G B E) - 'Untitled'

 3/4
    Gtr I
  H E E   Q.       E Q    H        E E    Q    Q.    E    Q    Q   E E
|-------|---------------|--------------|---------------|---------------|
|-------|---------------|--------------|--4----3-----1-|--1------------|
|---0-0-|-3--------0-0--|-3--------0-3-|-----0----0--0-|-(0)-2-3-----0-|
|---1-1-|-5--------1-1--|-5--------1---|-(1)-1----1--1-|-(1)-0---0-----|
|-------|----1-(1)------|---1-(1)------|---------------|-----------8-1-|
|-------|---------------|--------------|---------------|---------------|
          E  E +H         E E +Q   Q     +E  Q    Q  E   +E  Q   Q   E


   Q    Q   E E    H       E E    E  E Q   Q      H       E E   H     E E
|---------------|--------------|---------------|--------------|-----------|
|---------------|--------------|--3--1-----3---|--4-----------|-4-----1---|
|--2----------0-|--2---------2-|-----2-3-2---2-|--2--0--------|---------2-|
|-------3---3---|----------3---|-----3---0---3-|-(3)-1----1-1-|----1------|
|-(1)-0---1---3-|-(3)-0--1---3-|-(3)-----------|--------1---4-|-----------|
|---------------|--------------|---------------|--------4-----|-----------|
  +E  Q   Q   E   +E  Q  Q   E   +E  Q   Q   E    E  Q  Q   E   Q  H


             <          >
  H    E E   Q  Q  Q    S E. +Q   E E   H     E E   H    E E
|----------|----------|---------------|-----------|----------|
|----------|----------|---------------|-4-----1---|----------|
|-3----0---|-2--3--3--|-0-3--(3)------|---------2-|-3----0---|
|-5------1-|-3--3--3--|-5---------1-1-|----1------|-5------1-|
|----------|-5--5--5--|-6-----------4-|-----------|----------|
|----------|----------|---------------|-----------|----------|
                        H         Q     Q  H


  E. T T E Q   E   H    E    E   +E  E Q  E E   Q.       E Q    H        E E
|----------------|--------||---|----------3-3-|-6--------3-3--|-6--------3-6-|
|----------1---3-|-4------||---|----------4-4-|-8--------4-4--|-8--------4---|
|-2--3-2-0-------|--------||-3-|-(3)-0-3------|----3-(3)------|---3-(3)------|
|-3------1---3---|-1------||-5-|-(5)-1-5------|---------------|--------------|
|-5--------------|--------||---|--------------|---------------|--------------|
|----------------|--------||---|--------------|---------------|--------------|
  Q      Q   Q     H    E                       E  E +H         E E +Q   Q


   <               >
   Q    Q.    E    Q     Q   E E    Q    Q   E E
|-11---10-----8-|--8-----6---1-3-|--5----1---1-3-|
|----8-----8--8-|-(8)-10---3-----|-------------1-|
|----8-----8--8-|-(8)--7-------3-|-(3)-2---3-----|
|---------------|----------------|---------------|
|---------------|----------------|---------------|
|---------------|----------------|---------------|
   E Q     Q  E   +E   Q   Q   E   +E  Q   Q   E


   H       E E    E   E Q     Q
|--5-------1-5-|-10---8-6----10----|
|-(1)--------1-|-(1)-10---10----10-|
|-----2--3-----|-----10----7----10-|
|--------------|-------------------|
|--------------|-------------------|
|--------------|-------------------|
  +E  Q  Q   E   +E   Q    Q     E


                                         <
    H       E E   H     E E   H    E E   Q  Q  Q    S E. +Q  E E
|--11-----------|-----------|----------|----------|--------------|
|-(10)-8--------|-4-----1---|----------|----------|--------------|
|-(10)-8--------|---------2-|-3----0---|-2--3--5--|-0-3--(3)-----|
|---------8-1-1-|----1------|-5------1-|-3--3--3--|-5------------|
|--------10-----|-----------|----------|-5--5--5--|-6------------|
|---------------|-----------|----------|----------|----------0-0-|
   +E  Q  Q   E   Q  H                              H


                               >
  H    E E   H    E E   E. T T Q  Q    Q   H
|----------|----------|--------------|----------*|
|----------|----------|--------------|-----4----*|
|----------|------0---|-2--3-2-0-----|-----0----*|
|-1--------|--------1-|-3------1--3--|-1--------*|
|-3----3-0-|-1--------|-5------1--1--|-1--------*|
|-5--------|-4--------|--------------|-4--------*|
                        Q      Q  Q    H.


Duration Legend
---------------
W - whole; H - half; Q - quarter; E - 8th; S - 16th; T - 32nd; X - 64th; a - acciaccatura
+ - note tied to previous; . - note dotted; .. - note double dotted
Uncapitalized letters represent notes that are staccato (1/2 duration)
Irregular groupings are notated above the duration line
Duration letters will always appear directly above the note/fret number it represents the
duration for.  Duration letters with no fret number below them represent rests.  Multi-
bar rests are notated in the form Wxn, where n is the number of bars to rest for.  Low
melody durations appear below the staff

Tablature Legend
----------------
 h   - hammer-on
 p   - pull-off
 b   - bend
 pb  - pre-bend
 r   - bend release (if no number after the r, then release immediately)
 /\  - slide into or out of (from/to "nowhere")
 s   - legato slide
 S   - shift slide
  - natural harmonic
[n]  - artificial harmonic
n(n) - tapped harmonic
 ~   - vibrato
 tr  - trill
 T   - tap
 TP  - trem. picking
 PM  - palm muting
\n/  - tremolo bar dip; n = amount to dip
 \n  - tremolo bar down
 n/  - tremolo bar up
/n\  - tremolo bar inverted dip
 =   - hold bend; also acts as connecting device for hammers/pulls
 <>  - volume swell (louder/softer)
 x   - on rhythm slash represents muted slash
 o   - on rhythm slash represents single note slash

Misc Legend
-----------
 |  - bar
||  - double bar
||o - repeat start
o|| - repeat end
*|  - double bar (ending)
 :  - bar (freetime)
 $  - Segno
 &  - Coda
Tempo markers -  = BPM(8/16=s8/s16), where s8 = swing 8ths, s16 = swing 16ths


***************************************************************************************
* Generated using Power Tab Editor by Brad Larsen - http://powertab.guitarnetwork.org *
***************************************************************************************
Suggest correction
Give kudos to tab author, rate the tab!
1 2 3 4 5
comments
print report bad tab
guest
You may want to rate the tab now too:
select rating
Please do not post tabs as comments. Select "correction" instead!