Oops, an error
Loading. Please wait.

Lullaby Tab

version 4
version 4

Interactive

2,109 views 1 this week
no commentswrite comment
1 2 3 4 5
please rate
add to favorites
launch autoscroll
font size
0
reset
how to read this tab
guitar tuner
Tab Pro tools
  • play this tab
  • loop segment
  • change instrument
  • show fretboard
  • metronome
×
Best way to learn
"Lullaby"
Autoscroll
slow
fast
+/-
esc
set tempo
stop
Contributor
                                     LULLABY
                         As recorded by Johannes Brahms

Music by Johannes Brahms
Transcribed by Ben Goodrich

Gtr I (E A D G B E) - 'Untitled'

  Q=100
 3/4
  Gtr I
  H    E E   Q.     E Q    H        E  E   Q   Q.     E   Q    Q  E E
|----------|-------------|---------------|-3---2------0-|-0-----------|
|------0-0-|-3------0-0--|-3--------0--3-|----------0---|------3----0-|
|----------|------0------|-----0---------|---0----0-----|---2-----2---|
|----------|----0--------|---0---0-(0)---|--------------|-------------|
|----------|-------------|---------------|--------------|-------------|
|----------|-3-----------|-3-------------|-3------------|-2-----------|
  W          E  E H        E E E E +Q      E Q    E Q     E Q.    Q


  Q   Q    E  E   Q   Q    E  E   E  E Q    Q     H      E E
|---------------|---------------|-2--0------2---|-3----------|
|-1-----------0-|-1-----------1-|------3--------|-----0------|
|-----2----2----|-----2----2----|--------2-(2)--|---0----0-0-|
|---0---0-(0)---|---0---0-(0)---|-0-------------|------------|
|---------------|---------------|---------------|------------|
|-2-------------|-2-------------|---------------|-3----------|
  E Q   E +Q      E Q   E +Q      Q.     E +Q     E E Q  Q


  H        E  E   H        E  E   Q   Q    Q     Q    Q  E E
|-3--------0----|-3-------------|----------0---|-------------|
|-----1-------1-|----------0----|-1---3--------|-0----3------|
|---0---0-(0)---|-----0-------0-|---2---2-(2)--|---0-----0-0-|
|---------------|---0---0-(0)---|--------------|-------------|
|-3-------------|---------------|--------------|-------------|
|---------------|-3-------------|-2------------|-3-----------|
  E E E E +Q      E E E E +Q      E Q   E +Q     E Q.    Q


  H        E  E   H        E  E   Q   Q    Q     H    Q
|-3--------0----|-3-------------|--------------|---------*|
|-----1-------1-|----------0----|-1---0--------|---------*|
|---0---0-(0)---|-----0-------0-|----------2---|-0-------*|
|---------------|---0---0-(0)---|---0---0-(0)--|-0-------*|
|-3-------------|---------------|--------------|---------*|
|---------------|-3-------------|-2------------|-3-------*|
  E E E E +Q      E E E E +Q      E Q   E +Q     H    Q



***************************************************************************************
* Generated using Power Tab Editor by Brad Larsen - http://powertab.guitarnetwork.org *
***************************************************************************************
comments
We did not receive enough feedback on this tab! Please rate:
print report bad tab
1 2 3 4 5
I want to post or [tab]
guest
You may want to rate the tab now too:
select rating
Please do not post tabs as comments. Select "correction" instead!