Oops, an error
Loading. Please wait.

Denouement Tab

1,234 views 3 this week
2 commentsread comments
1 2 3 4 5
please rate
add to favorites
launch autoscroll
font size
0
reset
how to read this tab
guitar tuner
Tab Pro tools
  • play this tab
  • loop segment
  • change instrument
  • show fretboard
  • metronome
×
Best way to learn
"Denouement"
Autoscroll
slow
fast
+/-
esc
set tempo
stop
Contributor
----------------------------------------------------------------------------
                             SONG NAME - Band Name
----------------------------------------------------------------------------
Tabbed by:MeTaLhEaD69+5
Email:fjfrisco@msn.com
b=bend up

  Intro repeat
e|----------14~-------------------------------------------------------------|
B|----12~-------------------------------------------------------------------|
G|-15~---15~----------------------------------------------------------------|
D|--------------------------------------------------------------------------|
A|--------------------------------------------------------------------------|
E|--------------------------------------------------------------------------|
   2nd guitar
e|-22-19-22-19-21b-18-------------------------------------------------------|
B|--------------------------------------------------------------------------|
G|--------------------------------------------------------------------------|
D|--------------------------------------------------------------------------|
A|--------------------------------------------------------------------------|
E|--------------------------------------------------------------------------|

e|---------------------------------------------------------------------------|
B|----10-12------------------------------------------------------------------|
G|-11-------9------9---------------------------------------------------------|
D|-------------------12-11-9-------------------------------------------------|
A|---------------------------------------------------------------------------|
E|---------------------------------------------------------------------------|
  3rd guitar rhy. dropB this is what u play over the riff above
(D5)7x (F5)6x (C5)6x (D5)7x
comments
We did not receive enough feedback on this tab! Please rate:
print report bad tab
1 2 3 4 5
2 comments total.
-1 reply
The_Gray_KYLE wrote on May 31 2008, 09:48 pm

good but where is the next lick? after
e|---------------------------------------------------------------------------|
B|----10-12------------------------------------------------------------------|
G|-11-------9------9---------------------------------------------------------|
D|-------------------12-11-9-------------------------------------------------|
A|---------------------------------------------------------------------------|
E|---------------------------------------------------------------------------|

0 reply
[travis] wrote on March 12 2010, 05:36 am

Where the hell is the whole song?

I want to post or [tab]
guest
You may want to rate the tab now too:
select rating
Please do not post tabs as comments. Select "correction" instead!