Oops, an error
Loading. Please wait.

Beat Girl Tab

749 views 1 this week
no commentswrite comment
1 2 3 4 5
x 5
add to favorites
launch autoscroll
font size
0
reset
how to read this tab
guitar tuner
Autoscroll
slow
fast
+/-
esc
set tempo
stop
Help us to improve Ultimate-Guitar.com Take our survey!
×
Author
Difficulty
intermediate
Beat Girl
John Barry

Rhythm riff 1:

e|--------------------------|
B|--------------------------|
G|--------------------------|
D|--------------------------|
A|----------------3h4--3----|
E|-1-1-1-1--1-1----------2--|

Rhythm riff 2:

Three times:             Fourth time:
e|------------------|    e|---------------------|
B|------------------|    B|---------------------|
G|------------------|    G|---------------------|
D|-3--1-------------|    D|-3--1----------------|
A|-------3--4--3----|    A|-------3--4--3-------|
E|----------------2-|    E|----------------2--1-|

Lead riff 1:

e|-------------------------------------------------------|
B|-1-----------1----1-----------1----1------------1------|
G|-----3-2-1------------3-2-1------------3-2-1-----------|
D|-----------3----------------3----------------3----4-3--|
A|-------------------------------------------------------|
E|-------------------------------------------------------|

Lead riff 2:

e|-----------------13-------------------------13-----------|
B|-----------------13---2-2-2-1---------------13---2-2-2-1-|
G|-----------------13-------------------------13-----------|
D|---1-2-3-3-3-3---13-----------4---3-3-3-3---13-----------|
A|-3-------------------------------------------------------|
E|---------------------------------------------------------|

e|--------------13---------------|
B|--------------13---2-2-2-1-----|
G|--------------13---------------|
D|-4--3-3-3-3---13-----------4-3-|
A|-------------------------------|
E|-------------------------------|

For more tabs from secret agent films and TV:
http://www.mister8.com
Suggest correction
comments
print report bad tab
guest
You may want to rate the tab now too:
select rating
Wanna post a correction for this tab? Suggest correction