Oops, an error
Loading. Please wait.

Goldfinger Instrumental Tab

1,538 views 1 this week
no commentswrite comment
1 2 3 4 5
x 4
add to favorites
launch autoscroll
font size
0
reset
how to read this tab
guitar tuner
×
Best way to learn
"Goldfinger Instrumental"
Autoscroll
slow
fast
+/-
esc
set tempo
stop
Author
Difficulty
  follow
intermediate
These are the guitar tabs for the highly entertaining instrumental theme for the movie Goldfinger!

Written by John Barry
Tabbed By Ty Wright


e--------------------------------------|
b--------------------------------------|
g--------------------------------------|
d-7----3----7----3----7----3----7----3-|
a-8----4----8----4----8----4----8----4-|
e--------------------------------------|


e-------------------------------------------------------------|
b-------------------------------------------------------------|
g-------------------------------------3--2--1-----1-1-1-----0-|
d----5-3----------5---3----------------------------------2----|
a-3-----------------6-----3--5---5-5--------------------------|
e-------------------------------------------------------------|



e-------------------------------------------------------------------|
b-----4-2-----8-6------8----6----------------11--10--9---9-9-9---10-|
g----------5-------------8-------5--7---7-7--------------------9----|
d-------------------------------------------------------------------|
a--3----------------------------------------------------------------|
e-------------------------------------------------------------------|



e--------------------------------------------------------|
b--------------------------------------------------------|
g------------------------------------------------------7-|
d-9--7--5--5-----5--5--7--9----9--7--5--5-----5--5--9----|
a-------------7----------------------------7-------------|
e--------------------------------------------------------|


e------------------------------------------------------|
b------------------------------------------------------|
g-7-------------------7------------------------3-------|
d---10-9-9-9---10-10-----10--5-------5-5-4--2----4-2---|
a----------------------------------------------------4-|
e------------------------------------------------------|


e-------------------------------------------------------------|
b-------------------------------------------------------------|
g-------------------------------------3--2--1-----1-1-1-----2-|
d----5-3----------5---3----------------------------------2----|
a-3-----------------6-----3--5---5-5--------------------------|
e-------------------------------------------------------------|


e-------------------------------------------------|
b-------------------------------------------------|
g-------------------------------------------------|
d-5----------5----------5-----5----5-----5--------|
a---4-4-4-4----4-4-4-4----4-4--4-4---4-4---4-4--3-|
e-------------------------------------------------|


e------------------------------------------------------------------|
b-----8--6-------5-8-----------------------------------------------|
g--5-----------5---------------------------------------------------|
d-------------------------22222222-5-2222222---2222222-5-2222222---|
a--------------------------------------------3-------------------3-|
e------------------------------------------------------------------|


e------------------------------------------------------------------|
b-----8--6-------5-8-----------------------------------------------|
g--5-----------5---------------------------------------------------|
d-------------------------22222222-5-2222222---2222222-5-2222222---|
a--------------------------------------------3-------------------3-|
e------------------------------------------------------------------|


e-------------------------------------------------|
b-------------------------------------------------|
g-------------------------------------------------|
d-5----------5----------5-----5----5-----5--------|
a---4-4-4-4----4-4-4-4----4-4--4-4---4-4---4-4--3-|
e-------------------------------------------------|


Thats about it.
Suggest correction
comments
print report bad tab
guest
You may want to rate the tab now too:
select rating
Wanna post a correction for this tab? Suggest correction