Oops, an error
Loading. Please wait.

The Ipcress File Tab

1,285 views 3 this week
1 commentread comment
1 2 3 4 5
excellent!
x 5
add to favorites
launch autoscroll
font size
0
reset
how to read this tab
guitar tuner
Autoscroll
slow
fast
+/-
esc
set tempo
stop
Help us to improve Ultimate-Guitar.com Take our survey!
×
Author
Difficulty
intermediate
The IPCRESS File
By John Barry

CHORDS USED:

    Em   Am   B7   B°   C#7  Am7   F#7   D°7
e|---7----0----2---------4----0-----2-----4---|
B|---8----1----4----3----6----1-----5-----3---|
G|---9----2----2----4----4----0-----3-----4---|
D|---9----2----4----3----6----2-----2-----3---|
A|---7----0----2----2----4----0-----4---------|
E|---0------------------------------2---------|


INTRO:

                              (Flute)
e|--7--7-7---7--------------------------------------|
B|--8--8-8-8-8-----------------3~---3-2~---2--------|
G|--9------9-------------------------0------0-4~----|
D|--9---------------5-4-----------------------------|
A|--7-------------------2---------------------------|
E|--0-----------------------------------------------|


             Em                    (Flute)              
e|-------------7-7---7----------------------------------|
B|-------------8-8-8-8--------------3~---3-2~---2-------|
G|------0----------9---------0------------0------0-4~---|
D|--------4--------------------4------------------------|
A|----2--------------------2----------------------------|
E|--0--------0-----------0------------------------------|


THEME LEAD-IN (4x):

    Em
e|----7-7---7--|
B|----8-8-8-8--|
G|--------9----|
D|-------------|
A|-------------|
E|--0----------|

THEME RHYTHM:

    Em          Am              B7          B°
e|----7-7---7\----12-12----12\----2-2---2\----5-5---5\--|
B|----8-8-8-8\----13-13-13-13\----4-4-4-4\----6-6-6-6\--|
G|--------9-------------14------------2-----------7-----|
D|------------------------------------------3-----------|
A|--------------0---------------2-----------------------|
E|--0---------------------------------------------------|


    Am             B7          Em             
e|----12-12----12\---2-2---2\----7-7---7\---------------|
B|----13-13-13-13\---4-4-4-4\----8-8-8-8\---------------|
G|----------14-----------2-----------9------------------|
D|------------------------------------------------------|
A|--0--------------2------------------------------------|
E|-----------------------------0------------------------|


    Em          Am             C#7        C#7
e|----7-7---7\----12-12----12\----4-4---4----4-4---4----|
B|----8-8-8-8\----13-13-13-13\----6-6-6-6----6-6-6-6----|
G|--------9-------------14------------4----------4------|
D|------------------------------------------------------|
A|--------------0---------------4----------4------------|
E|--0---------------------------------------------------|

THEME LEAD:

    Em     Em   B7  B°  Am    B7   Em
e|---------------------------------------|
B|---------------------------------------|
G|---------------------------------------|
D|----4-------5-4------------4-5--4------|
A|--2----2-3------2---3-2-0---------2----|
E|---------------------------------------|

e|---------------------------------------|
B|---------------------------------------|
G|---------------------------------------|
D|----4------5-6---------4---5-4-----2---|
A|--2---2-3------4---2-0-----------3-----|
E|---------------------------------------|

BRIDGE:

   Am7             F#7   D°7             B7
e|------------------------------------------------------------------|
B|--5-------5---5---5-----6------6----9--8--7~----------------------|
G|----5---5---5---5---6-----7--7---7--------------------------------|
D|----------------------------------------------------1----------2--|
A|----------------------------------------------2-3-2---3-2----2----|
E|------------------------------------------------------------------|

OUTRO:

e|----2~-------2-0---------------------------------|
B|--0--------------2~-------3-2~-------------------|
G|-------------------------------------2-4~--------|
D|-------2--2---------2--2-------2--2-------2--2---|
A|-------2--2---------2--2-------2--2-------2--2---|
E|-------0--0---------0--0-------0--0-------0--0---|


For more tabs from secret agent films and TV:
http://www.mister8.com
Suggest correction
What's this?
You can suggest a correction to this tab. Community and Mods will review your correction and vote to approve or reject it.
comments
print report bad tab
1 comment total.
0 reply
aladin111 1,265 wrote on August 12 2013, 11:12 am

Complete and accurate. Great song, fine tab !

guest
You may want to rate the tab now too:
select rating
Please do not post tabs as comments. Select "correction" instead!