Oops, an error
Loading. Please wait.

Funky Tonight Bass Tab

version 2
version 2

Whole song

Interactive

2,172 views 1 this week
no commentswrite comment
1 2 3 4 5
3 more votes to show rating
add to favorites
launch autoscroll
font size
0
reset
guitar tuner
Autoscroll
slow
fast
+/-
esc
set tempo
stop
Help us to improve Ultimate-Guitar.com Take our survey!
×
Author
intro 0.05
|-<5>-| <> harmonic
|-----|
|-----|
|-----|

main riff        repeat
|---------------------|
|------5x-5-----------|
|-7x-7------5x-5---5--|
|----------------5----|

Or you can do it this way    fill 
|---------------------------|----------7-9-----------|
|------5----5---------------|------5-----------------|
|-7x-7----7----7--5x-5---5--|-7x-7---7-----5x-5---5--|
|----------------------5----|-------------------5----|

fill 2
|----------------------------|
|------5---5---------(7)-(5)-|    (-) < bend note
|-7x-7---7---7--5x-5---------|
|----------------------------|

chorus 1.13                 last bar
|---------------------|    |-----------------|
|---------------------| x3 |-----------------|
|-5h7--4h5------------|    |-5h7--4h5--------|
|-----------3h5--3-0--|    |-----------3h5~--|

interlude
|--------------------------------|
|--------------------------------|
|--------------------------------|
|-00--00--00--00--00--00--00--00-|

guitar solo =
main riff        repeat
|---------------------|
|------5x-5-----------|
|-7x-7------5x-5---5--|
|----------------5----|

bridge 2.26                                                    repeat
|-------------|-----------------12----12-----------------------------|
|-----12--14--|--12h14-14-14-14----14----14-12-12-12-12-------12-12--|
|-14----------|-----------------------------------------12-12--------|
|-------------|------------------------------------------------------|

back to main riff
|---------------------|
|------5x-5-----------|
|-7x-7------5x-5---5--| repeat
|----------------5----|

chorus 1.13                 2nd chorus               last bar
|---------------------|    |-------------------|    |----------------|
|---------------------| x4 |------4h5------5h7-| x3 |------4h5--5h7~-|
|-5h7--4h5------------|    |-5h7-------4h5-----|    |-5h7------------|
|-----------3h5--3-0--|    |-------------------|    |----------------|

bass solo 3.46
|----------12--------------------------12-------------|
|-12-13-14----14-12----12-13--12-13-14-------12-13-14-| repeat with
|-------------------14--------------------14----------| some veration
|-----------------------------------------------------|

outro               repeat till end
|----------------------------------|
|-------5------------------5-------|
|-5-6-7---7-5---5-6--5-6-7---7-5---|
|-------------7------------------0-|

and thats about it.. sorry if i missed anything out but enjoy 
Suggest correction
Give kudos to tab author, rate the tab!
1 2 3 4 5
comments
print report bad tab
guest
You may want to rate the tab now too:
select rating
Wanna post a correction for this tab? Suggest correction