Oops, an error
Loading. Please wait.

Funky Tonight tab

version 2
version 2

Interactive

58,373 views 15 this week
6 commentsread comments
1 2 3 4 5
x 13
add to favorites
×
Save as Personal and add changes to this tab that will be seen only by you. Learn more ›
×
You can save this tab as Personal to edit and correct it or add notes. All changes will be seen only by you. Learn more »
launch autoscroll
font size
0
reset
how to read this tab
guitar tuner
edit
Autoscroll
slow
fast
+/-
esc
set tempo
stop
-------------------------------------------------------------------------------
                             Funky Tonight - John Butler Trio
-------------------------------------------------------------------------------
Tabbed by:Leo_Monkey
Email:

Tuning:CGCGCE
Capo 4th          this is correct if you dont think so play it slowly and
                         listen to the song
Main Riff
e|----------------------------------------|
B|----------------------------------------|
G|----------------------------------------|
D|---0-----0---0---0----0-----0---0---0---|
A|-----3h5-------3h5------3h5-------3h5---|
E|-0---------3--------0---------5---------|

lick in the intro
e|-------------|
B|-------------|
G|--------0-5--|
D|--0h3h5------|
A|-------------|
E|-------------|

[Chorus]

e|------------------------------------------------------------|
B|------------------------------------------------------------|
G|-2/3------------------5-----2/3-----------------5-----------|
D|----------5-----3-------------------5-----3-----------------|
A|-2/3------------------5-----2/3-----------------5-----------|
E|----------5-----3-------------------5-----3-----------------|

ending part       and in between do this
                  riff some random time       end the song with this
e|----------------| ---------------------|-----------------------------|
B|---3------------| -------3--5h6p5------|----3------------------------|
G|-5---5p3p0-3-5--|x35 --5----------3-5--|--5---5p3p0------------------|
D|----------------| ---------------------|----------------0------------|
A|----------------| ---------------------|----------------0------------|
E|----------------| ---------------------|----------------0------------|
all up you should lpay that last part 40 times all up
this one ^ x35          this ^ x4                 this ^ once (at end)



************************************

| h  Hammer-on
| /  Slide up
| p  Pull-off
| x  Dead note 

************************************

            
            
Suggest correction
Creating personal tab
Creating personal tab
You can edit any tab online and save it as your Personal.

You can edit, replace or remove any tab part or add personal notes – all changes will be seen only by you.

Personal tabs can be accessed anytime from any device, even offline.
Learn more »
comments
print report bad tab
6 comments total. Showing first comments.
+1 reply
sadistic_monkey 20 Nov 19, 2007 03:32 PM

The intro's a little bit off. I got it as:

e|----------------------------------------|
B|----------------------------------------|
G|----------------------------------------|
D|---0--------0--------0----------0-------|
A|-----3h4h5----3h5--3---3h4h5-------3h5--|
E|-0---------3------------------5---------|



Everything else seems pretty good

+2 reply
Hickle Stine 136 Mar 29, 2008 02:17 AM

This is pretty right but i still think mine is the most accurate...(ver3)

and the chorus is, sorry, really off, its more like:

---------------------------------------|
---------------------------------------|
---3/5-5---2-2/3-3---------------------|
---0/0-0---0-0/0-0----3-3/5-5---3--0---|
---3/5-5---2-2/3-3----0-0/0-0---0--0---|
---0/0-0---0-0/0-0----3-3/5-5---3--0---|

0 reply
Scapoc 10 Jul 23, 2009 03:13 PM

Uh you left a good bit of notes off of the intro. Try again. If you want a correct set of tabs for this song, check out the guitar pro version of this song, because this one is wrong.

guest
You may want to rate the tab now too:
select rating
Wanna post a correction for this tab? Suggest correction