Oops, an error
Loading. Please wait.

Funky Tonight tab

version 3
version 3

Interactive

13,609 views 3 this week
1 commentread comment
1 2 3 4 5
2 more votes to show rating
add to favorites
×
Save as Personal and add changes to this tab that will be seen only by you. Learn more ›
×
You can save this tab as Personal to edit and correct it or add notes. All changes will be seen only by you. Learn more »
launch autoscroll
font size
0
reset
how to read this tab
guitar tuner
edit
Autoscroll
slow
fast
+/-
esc
set tempo
stop
*Edited: MUCH more accurate*

The other tabs on UG are close, but not correct.
This is MY version of the song, but it sounds better than the others on UG.
More (and maybe better?) versions are on the JBT forum: http://www.johnbutlertrio.com/forum/
take a look

CGCGCE
Capo 4th

the main riff/intro:

When the riff is first played, a
-----|
-----|
-----|
-----|
-----|
--0--|, (open E note) is played briefly

-----------------------------------------------------------------------------|
-----0-------------0--0------0-------------0----------0---0----0-----0-------|
-----0-------------0--0------0-------------0----------0---0----0-----0-------|
-------------------3--0------0------------------------3---0------------------|
--------0h3h5-----------3----------------3--3h4h5------------3----5----------|
-----------------------------------------------------------------------------|
       (^ listen carefully to the timing of this 0h3h5, the 0 is slower)

alternate playing of the main riff:

-----------------------------------------------------------------------------|
-----0-------------0--0------0-------------0-----0---0--------0--0-----------|
-----0-------------0--0------0-------------0-----0---0--------0--0-----------|
-------------------3--0------0------------------------5h7p5---3--5-----------|
--5-----3h4h5-----------3----------------3--3h4h5----------------------------|
-----------------------------------------------------------------------0-----|

CHORUS:
(Sorry this bit wasn't actually tabbed my me, credit goes to 'hollywood' of the JBT 
I just thought I'd include it here)
actually i changed it a bit.

---------------------------------------|
---------------------------------------|
---3/5-5---2-2/3-3---------------------|
---0/0-0---0-0/0-0----3-3/5-5---3--0---|
---3/5-5---2-2/3-3----0-0/0-0---0--0---|
---0/0-0---0-0/0-0----3-3/5-5---3--0---|

second chorus repeat is:
---------------------------------------|
-----------2-2/3-3---------------------|
---3/5-5---0-0/0-0---------------------|
---0/0-0---2-2/3-3----3-3/5-5---3--0---|
---3/5-5--------------0-0/0-0---0--0---|
---0/0-0--------------3-3/5-5---3--0---|

SOLO:
sorry, i dont know it and wont tab it

The breakdown at the end, after the drums/bass bit:

----------------------------|
---0---3--------------------|
-----------5p3p0----3--5----|
----------------------------|
----------------------------|
----------------------------|

with the occasional:

---------------------------|
---0---3-----6-5-3-0-------|
---------------------------|
---------------------------|
---------------------------|
---------------------------|

song ends on the note:

-----------|
-----------|
-----------|
----0------|
----0------|
----0------|


Well, there you go!
hope this helps!
Yes, I know there are some errors in there, but I believe this to be a pretty darn good
tab. enjoy :)
Suggest correction
Creating personal tab
Creating personal tab
You can edit any tab online and save it as your Personal.

You can edit, replace or remove any tab part or add personal notes – all changes will be seen only by you.

Personal tabs can be accessed anytime from any device, even offline.
Learn more »
Give kudos to tab author, rate the tab!
1 2 3 4 5
comments
print report bad tab
1 comment total.
+1 reply
brennan-geetar- 251 Oct 11, 2007 01:21 AM

don no if its rite but it sounds kool
nice tab
breno

guest
You may want to rate the tab now too:
select rating
Wanna post a correction for this tab? Suggest correction