Oops, an error
Loading. Please wait.

Losing You Tab

version 3
version 3

Whole song

Interactive

113,371 views 114 this week
12 commentsread comments
1 2 3 4 5
x 36
add to favorites
launch autoscroll
font size
0
reset
how to read this tab
guitar tuner
Autoscroll
slow
fast
+/-
esc
set tempo
stop
Help us to improve Ultimate-Guitar.com Take our survey!
×
Author
Difficulty
intermediate
Tuning: Open G with bottom C


[Intro]

d|--0---0-0-0-0-0--0-0-|--0---0-0-0--0-0---0-0-|
B|-------------3-/5-3--|---3/5-3-0-------------|
G|-------0-2-4---------|-----------/4-2-0h2-0--|
D|---0h2---------------|-----------------------|
G|-0-------------------|-----------------------| 
C|---------------------|-0---------------------|

d|--0---0-0-0--0------0-0-|--0---0-0-0--0-0---0-0-|
B|----------------0-------|---3h5-3-0-------------|
G|-------0-0-/4----4\2-0--|-----------/4-2-0h2-0--|
D|---0h2------------------|-----------------------|
G|-0----------------------|-----------------------|
C|------------------------|-0---------------------|

d|--0---0-0-0-0---0-0---0-|--0---0-0-0--0-0---0-0-|
B|---3h5-3-0---3h5-3------|--------------------0--|
G|-------------------4\2--|(0)----0-2-/4-2-0h2----|
D|-0----------------------|---0h2-----------------|
G|------------------------|-0---------------------|
C|-----------0------------|-----------------------|

d|--0---0-0-0-0-0---0-0-|
B|----------------------|
G|-------0-2-0---0h2-0--|
D|---0h2-------2--------|
G|-0--------------------|
C|----------------------|


[Verses 1]

d|--0---0-0-0--0-0--0-0-|--0--0-0-0--0-0-0---0-|
B|--------------3-/5-3--|---/5-3-0-------------|
G|-------0-0-/4---------|----------/4-2-0------|
D|---0h2----------------|-----------------2p0--|
G|-0--------------------|----------------------|
C|----------------------|-0--------------------|
 
d|--0---0-0-0--0---0---0-0-|--0---0-0-0--0-0-0---0-|
B|--------------3p0--------|---3h5-3-0-------------|
G|-------0-0-/4-----4\2-0--|-----------/4-2-0------|
D|---0h2-------------------|------------------2p0--|
G|-0-----------------------|-----------------------|
C|-------------------------|-0---------------------|


[Chorus]

d|--0---0-0-0-0---0-0---0-|
B|---3h5-3-0---3h5-3------|
G|-------------------4\2--|
D|-0----------------------|
G|------------------------|
C|-----------0------------|

[Hook]

(couple variations on this throughout song)

d|--0---0-0-0--0-0---0-0-|--0---0-0-0-0-0-0-0-|
B|--------------------0--|--------------------|
G|(0)----0-2-/4-2-0h2----|-------0-2-0---0----|
D|---0h2-----------------|---0h2-------2---2--|
G|-0---------------------|-0------------------|
C|-----------------------|--------------------|


[Verses 2]

d|--0---0-0-0--0-0--0-0-|--0--0-0-0--0-0-0---0-|
B|--------------3-/5-3--|---/5-3-0-------------|
G|-------0-0-/4---------|----------/4-2-0------|
D|---0h2----------------|-----------------2p0--|
G|-0--------------------|----------------------|
C|----------------------|-0--------------------|
 
d|--0---0-0-0--0---0---0-0-|--0---0-0-0--0-0-0---0-|
B|--------------3p0--------|---3h5-3-0-------------|
G|-------0-0-/4-----4\2-0--|-----------/4-2-0------|
D|---0h2-------------------|------------------2p0--|
G|-0-----------------------|-----------------------|
C|-------------------------|-0---------------------|

   [Chorus]                   [Break]

d|--0---0-0-0-0---0-0---0-|--0---0-0-0--0-0---0-0-|
B|---3h5-3-0---3h5-3------|-----------------------|
G|-------------------4\2--|-------0-2-/4-2-0h2-0--|
D|-0----------------------|---0h2-----------------|
G|------------------------|-0---------------------|
C|-----------0------------|-----------------------|

repeat chorus

d|--0---0-0-0-0---0-0---0-|
B|---3h5-3-0---3h5-3------|
G|-------------------4\2--|
D|-0----------------------|
G|------------------------|
C|-----------0------------|


[Hook] 

d|--0---0-0-0--0-0---0-0-|--0---0-0-0-0-0-0-0-|
B|--------------------0--|--------------------|
G|(0)----0-2-/4-2-0h2----|-------0-2-0--------|
D|---0h2-----------------|---0h2-------2-0-2--|
G|-0---------------------|-0------------------|
C|-----------------------|--------------------|

 
[Verses 3]

d|--0---0-0-0--0-0--0-0-|--0--0-0-0--0-0-0---0-|
B|--------------3-/5-3--|---/5-3-0-------------|
G|-------0-0-/4---------|----------/4-2-0------|
D|---0h2----------------|-----------------2p0--|
G|-0--------------------|----------------------|
C|----------------------|-0--------------------|
 
d|--0---0-0-0--0---0---0-0-|--0---0-0-0--0-0-0---0-|
B|--------------3p0--------|---3h5-3-0-------------|
G|-------0-0-/4-----4\2-0--|-----------/4-2-0------|
D|---0h2-------------------|------------------2p0--|
G|-0-----------------------|-----------------------|
C|-------------------------|-0---------------------|

   [Chorus]                   [Break]

d|--0---0-0-0-0---0-0---0-|--0---0-0-0--0-0---0-0-|
B|---3h5-3-0---3h5-3------|-----------------------|
G|-------------------4\2--|-------0-2-/4-2-0h2-0--|
D|-0----------------------|---0h2-----------------|
G|------------------------|-0---------------------|
C|-----------0------------|-----------------------|

repeat chorus

d|--0---0-0-0-0---0-0---0-|
B|---3h5-3-0---3h5-3------|
G|-------------------4\2--|
D|-0----------------------|
G|------------------------|
C|-----------0------------|


[Interlude]

d|--0---0-0-0-0-0--0-0-|--0--0-0-0--0-0---0-0-|
B|-------------3-/5-3--|---/5-3-0-------------|
G|-------0-2-4---------|----------/4-2-0h2-0--|
D|---0h2---------------|----------------------|
G|-0-------------------|----------------------| 
C|---------------------|-0--------------------|

d|--0---0-0-0--0------0-0-|--0---0-0-0--0-0---0-0-|
B|----------------0-------|---3h5-3-0-------------|
G|-------0-0-/4----4\2-0--|-----------/4-2-0h2-0--|
D|---0h2------------------|-----------------------|
G|-0----------------------|-----------------------|
C|------------------------|-0---------------------|

d|--0---0-0-0-0---0-0---0-|--0---0-0-0--0-0---0-0-|
B|---3h5-3-0---3h5-3------|--------------3-----0--|
G|-------------------4\2--|(0)----0-2-/4---4\2----|
D|-0----------------------|---0h2-----------------|
G|------------------------|-0---------------------|
C|-----------0------------|-----------------------|

d|--0---0-0-0-0-0-0-0-|
B|--------------------|
G|-------0-2-0--------|
D|---0h2-------2-0-2--|
G|-0------------------|
C|--------------------|


[Verse 4]

d|--0---0-0-0--0-0--0-0-|--0--0-0-0--0-0-0-0-|
B|--------------3-/5-3--|---/5-3-0-----------|
G|-------0-0-/4---------|----------/4-2-0-0--|
D|---0h2----------------|--------------------|
G|-0--------------------|--------------------|
C|----------------------|-0------------------|
 
d|--0---0-0-0--0------0-0-|--0---0-0-0--0-0-0---0-|
B|----------------0-------|---3h5-3-0-------------|
G|-------0-0-/4----4\2-0--|-----------/4-2-0------|
D|---0h2------------------|------------------2p0--|
G|-0----------------------|-----------------------|
C|------------------------|-0---------------------|


   [Chorus]                   [Break]

d|--0---0-0-0-0---0-0---0-|--0---0-0-0--0-0---0-0-|
B|---3h5-3-0---3h5-3------|-----------------------|
G|-------------------4\2--|-------0-2-/4-2-0h2-0--|
D|-0----------------------|---0h2-----------------|
G|------------------------|-0---------------------|
C|-----------0------------|-----------------------|

repeat chorus

d|--0---0-0-0-0---0-0---0-|
B|---3h5-3-0---3h5-3------|
G|-------------------4\2--|
D|-0----------------------|
G|------------------------|
C|-----------0------------|


[Hook]

d|--0---0-0-0--0-0---0-0-|--0---0-0-0-0-0---0-0-|
B|--------------------0--|----------------------|
G|(0)----0-2-/4-2-0h2----|-------0-2-0---0h2-0--|
D|---0h2-----------------|---0h2-------2--------|
G|-0---------------------|-0--------------------|
C|-----------------------|----------------------|

repeat 1st verse (note constant g bass note)

d|--0---0-0-0--0-0--0-0-|--0--0-0-0--0-0-0---0-|
B|--------------3-/5-3--|---/5-3-0-------------|
G|-------0-0-/4---------|----------/4-2-0------|
D|---0h2----------------|-----------------2p0--|
G|-0--------------------|-0--------------------|
C|----------------------|----------------------|
 
d|--0---0-0-0--0---0---0-0-|--0---0-0-0--0-0-0---0-|
B|--------------3p0--------|---3h5-3-0-------------|
G|-------0-0-/4-----4\2-0--|-----------/4-2-0------|
D|---0h2-------------------|------------------2p0--|
G|-0-----------------------|-0---------------------|
C|-------------------------|-----------------------|


   [Chorus]                   [Break]

d|--0---0-0-0-0---0-0---0-|--0---0-0-0--0-0---0-0-|
B|---3h5-3-0---3h5-3------|-----------------------|
G|-------------------4\2--|-------0-2-/4-2-0h2-0--|
D|-0----------------------|---0h2-----------------|
G|------------------------|-0---------------------|
C|-----------0------------|-----------------------|

   repeat chorus         

d|--0--0-0-0-0--0-0---0-|--0---0-0-0--0-0---0-0-|
B|------3-----/5-3------|-----------------------|
G|---/4---4--------4\2--|-------0-2-/4-2-0h2-0--|
D|-0--------------------|---0h2-----------------|
G|----------------------|-0---------------------|
C|----------0-----------|-----------------------|

[Last Chorus]                
                          last few bars
d|--0---0-0-0-0--0-0---0-|--0---0-0-0--0-0---0-0-|
B|---3h5-3-0------3------|--------------------0--|
G|-------------/4---4\2--|-------0-2-/4-2-0h2----|
D|-0---------------------|---0h2-----------------|
G|-----------------------|-0---------------------|
C|-----------0-----------|-----------------------|

d|--0---0-0-0-0-0--0-0-|--0---0-0-0--0-0---0-0-|
B|-------------3-/5-3--|-----------------------|
G|-------0-2-4---------|-------0-2-/4-2-0h2-0--|
D|---0h2---------------|---0h2-----------------|
G|-0-------------------|-0---------------------| 
C|---------------------|-----------------------|

d|--0---0-0-0---0-0---0--|-+12-|
B|-----------0h1-0-------|-+12-|
G|-------0-2-------0h2-0-|-+12-|
D|---0h2-----------------|-+12-|
G|-0---------------------|-+12-| 
C|-----------------------|-----|



************************************

| (n)  Ghost note
| h    Hammer-on
| p    Pull-off
| /    Slide up
| \    Slide down
| +    Harmonic

************************************
Suggest correction
comments
print report bad tab
12 comments total. Showing first comments.
+1 reply
Crisp_Packet 449 Oct 21, 2008 05:56 PM

Pretty spot on tab except for the tuning. It needs to be 1/2 a step down, so

c#
Bb
Gb
Db
Gb
B

Kudos for tabbing all the little variants in the riffs though.

+1 reply
murr_456 10 Nov 22, 2008 01:35 PM

Got it down Pat!

One thing though

d-|--0---0-0-0--0------0-0-|
b-|-------------- 0 -------| Is this open B string supposed to be played or is it
g-|-------0-0-/4----4\2-0--| supposed to be an open D??
d-|---0h2------------------|
g-|-0----------------------|
C-|------------------------|

0 reply
dzzjj 10 Nov 26, 2008 03:00 PM

Like this

d-|--0---0-0-0-- 0 ---0-0-|
b-|------------- 0 ------|
g-|-------0-0-/4----4\2-0--|
d-|---0h2------------------|
g-|-0----------------------|
C-|------------------------|

so do the slide /4 then play the high d string
set a little pause then play the open b and slide on the g-string from /4 back to 2

guest
You may want to rate the tab now too:
select rating
Wanna post a correction for this tab? Suggest correction