Oops, an error
Loading. Please wait.

Ocean Tab

version 2
version 2

Whole song

Interactive

82,912 views 135 this week
6 commentsread comments
1 2 3 4 5
excellent!
x 31
add to favorites
launch autoscroll
font size
0
reset
how to read this tab
guitar tuner
Autoscroll
slow
fast
+/-
esc
set tempo
stop
Help us to improve Ultimate-Guitar.com Take our survey!
×
Author
Difficulty
Tuning
Capo
advanced
C G C G C E
4th fret
Its finger tapping on the low and left hand pulling off.


     S S S S S S S S S S S S S S S S    S S S S S S S S S S S S S S S S  
E|----3-0---------------------------|----3-0---------------------------|
C|--------4-2-0-----2-0-4-2-0-------|--------4-2-0-----2-0-4-2-0-------|
G|--------------4-0-----------4-0-4-|--------------4-0-----------4-0-4-|
C|----------------------------------|----------------------------------|
G|----------------------------------|----------------------------------|
C|--5-------------------------------|--7-------------------------------|


    S S S S S S S S S S S S S S S S    S S S S S S S S S S S S E  E   
E|----3-0---------------------------|--------------------------------|
C|--------4-2-0---------------------|--------------------------------|
G|--------------4-0-2-0-4-0-2-0-2-0-|----2-0-4-2-0-2-0---2-0-4-2--0--|
C|----------------------------------|--------------------------------|
G|----------------------------------|--------------------------------|
C|--0-------------------------------|--4---------------5-------------|


    S S S S S S S S S S S S S S S S    S S S S S S S S S   S S S S S E   
E|----3-0---------------------------|----3-0----------------------------|
C|--------4-2-0-----2-0-4-2-0-------|--------4-2-0-----2-2g4-2-0-2-0----|
G|--------------4-0-----------4-0-4-|--------------4-0---------------2--|
C|----------------------------------|-----------------------------------|
G|----------------------------------|-----------------------------------|
C|--5-------------------------------|--7--------------------------------|


    S S S S S S S   S S S S S S   S S S    Q.     S   S E  E  Q     
E|--------------------------------------|--------------------------|
C|----2-0-------------------------------|---------------0----------|
G|--------4-2-0-4-4g5-4-0-2-0-----------|------------------0-------|
C|----------------------------4-4g5-4-0-|--2------2-2g4------------|
G|--------------------------------------|--------------------------|
C|--4-----------------------------------|---------------------0----|


    W                   W                   S  S S S E  S S S  S E  E  S S  
E|-------------------|-------------------|-------------------------------0-|
C|-------------------|-------------------|-------0------0--------0---------|
G|-------------------|-------------------|---------0------0---------0------|
C|-------------------|-------------------|---------------------------------|
G|-------------------|-------------------|---------------------------------|
C|--L----------------|--L----------------|--0h-4-----4------4h-5-------5---|


       |-3-|                                                           
    E  S S S S S S S S S S S E  S S    S  S S S E  S S S  S E  E  S S  
E|----------------------------------|---------------------------------|
C|-----------0-4-5-4-0-----0------0-|-------0------0--------0-------0-|
G|---------------------0-5---4------|---------0------0---------0------|
C|-----0-4-7------------------------|---------------------------------|
G|----------------------------------|---------------------------------|
C|--0---------------------------0---|--0h-4-----4------4h-5-------5---|


       |-3-|                                                                    
    E  X X X T S E  E  T T T T S S S   S S S    S  S S S E  S S S  S E  E  S S  
E|---------0-3-L-0---------------------------|---------------------------------|
C|-------0----------4--2-4-2-0---------------|-------0------0--------0-------0-|
G|-----0-----------------------0-4-4br-L---4-|---------4------4---------5------|
C|-------------------------------------------|---------------------------------|
G|-------------------------------------------|---------------------------------|
C|--0------------------------------------0---|--0h-4-----4------4h-5-------5---|


    S   S Q    E  S S  E  E  S S    S  S E  E  S S S  S E  E  S S  
E|-------------------------------|--------------------------------|
C|--------7----7--7-LS-2--2----0-|-------0-------0------0-------0-|
G|--5-5g9------9--9-LS-4--4------|----------4--------------5------|
C|-------------------------------|--------------------------------|
G|-------------------------------|--------------------------------|
C|---------------------------0---|--0h-4-------4---4h-5-------5---|


       |-3-|                                                         
    E  S S S S S S S S S S S E  S S    S S E  E  S S E  S S S S S S  
E|----------------------------------|-------------------------------|
C|---------------------------0----0-|-------------------------------|
G|-----------------0-4-0-4-5--------|------2--2----2----2-0-----0---|
C|----------------------------------|---------0-------------0-2---2-|
G|-----------0-4-5------------------|-------------------------------|
C|--0--0-4-5--------------------0---|--0-2-------2---2------2-------|


    S   S S S E  S S S S S S S S E      E  S S E  S S S S S S E  E   
E|----------------------------------|-------------------------------|
C|-----------------------------0----|----------0--------------------|
G|--------0------0-------0---4------|--------0-0----0-----0------0--|
C|--2-2g4---4------4-0-4---4-----0--|--/5--5---5--5-----5---5-------|
G|----------------------------------|-------------------------------|
C|--2-2g4-----4------4--------------|--/5-------------5-------5-----|


    S S S S S S S S E  E  E  E     S S S S E  E  S S S S E  E   
E|---------------------------0--|------------------------------|
C|---------------------------0--|------0------2--2-0-----0-----|
G|----7-----7-----7-7--7--7--0--|--------0-----------0-2----2--|
C|------5-----5-----5--5--5--0--|------------------------------|
G|------------------------0--0--|--0---------------------------|
C|--5-----5-----5---------5--0--|--0-2-----2-------------------|


    S   S S S E  S S S S S S S S S S    S   S E  E  S S S S S S E  E   
E|---------------3-0---3-0---3-0-----|--------------------------------|
C|--------0------------------------0-|--------0-----0-------0---------|
G|--2-2g4---4--------4-----4---------|----------------5---5-----5--0--|
C|-----------------------------------|--------------------------------|
G|-----------------------------------|--------------------------------|
C|--2-2g4-----4------------------4---|--4-4g5----5------5-----5-------|


          |-3-|                                                 
    E  E  S S S S S S S S S S S E     E.  S E  E.  S E  E  S S  
E|---------------------------------|---------------------------|
C|--5--4--0-4-0--------------------|---------------------------|
G|--------------5-4-0-----0--------|---------------------------|
C|--------------------0-5---5-4-0--|--0---0-0--0---0-0--0--0-0-|
G|---------------------------------|--5---5-5--4---4-4--4--4-4-|
C|---------------------------------|--5---5-5--5---5-5--5--5-5-|


                      ^                         
    E.  S E  E.  S E  Q       W                 
E|-------------------------|-------------------|
C|--------------------0----|--L----------------|
G|--------------------0----|--L----------------|
C|--0---0-0--0---0-0--0----|--L----------------|
G|--7---7-7--7---7-7--7----|--L----------------|
C|--5---5-5--5---5-5--5----|--L----------------|


       E.  S S S S S S S S S S S S S S S S S S E  S  
E|--------------------------------------------------|
C|---0g2---0---0-2-0-2-0-4-2-0---0-2-0-2-0-2-0----0-|
G|*----------4-----------------0---------------4----|
C|*-------------------------------------------------|
G|-----0--------------------------------------------|
C|-----0--------------------------------------------|


    E  S S S S S S S S S S S S S S S S S S S E  S  
E|-------------------------------------------3--0-|
C|-------0-2-0---0-2-0-2-0-4-2-0-0-2-0-2-0--------|
G|-----0-------4---------------------------0------|
C|------------------------------------------------|
G|--0---------------------------------------------|
C|--0---------------------------------------------|


    E.  S S S S S S S S S S S S S S S S S S E  S  
E|------3-0--------------------------------------|
C|----------4-2-0---0-2-0-2-0--------------------|
G|----------------0-----------4-2-0--------------|
C|----------------------------------4-2-0-0----0-|
G|------------------------------------------4----|
C|--0--------------------------------------------|


    E.  S S S S S S S S S S S S S S S S S S E  S    
E|------------------------------------------------||
C|------------------------------------------0--0--||
G|----------------------------0-4-0---0-4-5------*||
C|------------4-0---0-4-0-4-5-------0------------*||
G|------0-4-5-----0-------------------------------||
C|--0---------------------------------------------||


    E  S E  S E  S E  S E  S E  S E  S E  S  
E|------------------------------------------|
C|----------0---------0---------0---------0-|
G|-------5---------5---------4---------4----|
C|------------------------------------------|
G|------------------------------------------|
C|--4--4------4--4------5--5------5--5------|


    E  S E  S S S S S S S S  S S S S S S  S S S S S  
E|--------------------------------------------------|
C|-----7-7--7-7-7-7-7-7-7-7s-5-5-5-5-5-5s-4-4-4-4-4-|
G|-----9-9--9-9-9-9-9-9-9-9s-7-7-7-7-7-7s-5-5-5-5-5-|
C|-----0-0--0-0-0-0-0-0-0-0--L-0-0-0-0-0--L-0-0-0-0-|
G|--0--0-0--0-0-0-0-0-0-0-0--L-0-0-0-0-0--L-0-0-0-0-|
C|--0-----------------------------------------------|


    E  S E  S E  S E  S E  S E  S E  S E  S  
E|------------------------------------------|
C|----------0---------0---------0---------0-|
G|-------5---------5---------4---------7----|
C|------------------------------------------|
G|------------------------------------------|
C|--4--4------4--4------5--5------5--5------|


    E  S S S S S S S S S S S S S S S S E  S E  S  
E|-------------------------------------0--0-0--0-|
C|-----------7-----7-----7-----7-----7-7--7-7--7-|
G|-------7-9---7-9---7-9---7-9---7-9---9--9-9--9-|
C|-----------------------------------------------|
G|-----------------------------------------------|
C|--0--0-----------------------------------------|


    E  S E  S E  S E  S E  S E  S E  S E  S  
E|----------0---------0---------------------|
C|------------------------------0---------0-|
G|-------9---------9---------5---------5----|
C|------------------------------------------|
G|------------------------------------------|
C|--9--9------9--9------5--5------5--5------|


    E.  S S S S S S S S S S S S S S S S S S E  S  
E|------3-0--------------------------------------|
C|----------4-2-0---0-2-0-2-0-4-2-0---0-2-0----0-|
G|----------------0-----------------0-------4----|
C|-----------------------------------------------|
G|-----------------------------------------------|
C|--0--------------------------------------------|


    E  S E  S E  S E  S E  S E  S E  S E  S  
E|------------------------------------------|
C|----------0---------0---------0---------0-|
G|-------5---------5---------5---------5----|
C|------------------------------------------|
G|------------------------------------------|
C|--0--0------0--0------0--0------0--0------|


    E  S E  S E  S E  S E  S E  S E  S E  S  
E|----------0---------0---------------------|
C|------------------------------0---------0-|
G|-------9---------9---------5---------5----|
C|------------------------------------------|
G|------------------------------------------|
C|--9--9------9--9------5--5------5--5------|


    E  S S S S S S S S S S S S S E  S E  S E.   
E|---------------------------------------7-----|
C|-----------7-----7-----7-----7-9--7------9---|
G|-------7-9---7-9---7-9---7-9---7----9--------|
C|---------------------------------------------|
G|---------------------------------------------|
C|--0--0---------------------------------------|


    E  S E  S E  S E  S E  S E  S E  S E  S  
E|----------0---------0---------0---------0-|
C|-------9---------9---------5---------5----|
G|------------------------------------------|
C|------------------------------------------|
G|------------------------------------------|
C|--9--9------9--9------5--5------5--5------|


    E.  E  S S S S S S S S S S S S S S S S E  S  
E|------5--3-5-3--------------------------------|
C|---------------4---0-2-0-2-0-0-2-0-4-2--------|
G|-----------------0---------------------0-4--4-|
C|----------------------------------------------|
G|----------------------------------------------|
C|--0-------------------------------------------|


    E  S E  S E  S E  S E  S E  S E  S E  S  
E|----------0---------0---------0---------0-|
C|-------9---------9---------5---------7----|
G|------------------------------------------|
C|------------------------------------------|
G|------------------------------------------|
C|--9--9------9--9------5--5------7--7------|


    E  S S S S S  S S S S S S  S S S S S S  S S S S S  
E|----------------------------------------------------|
C|-----7-7-7-7-7s-5-5-5-5-5-5s-4-4-4-4-4-4s-2-2-2-2-2-|
G|-----9-9-9-9-9s-7-7-7-7-7-7s-5-5-5-5-5-5s-4-4-4-4-4-|
C|-----0-0-0-0-0--L-0-0-0-0-0--L-0-0-0-0-0--L-0-0-0-0-|
G|--0--0-0-0-0-0--L-0-0-0-0-0--L-0-0-0-0-0--L-0-0-0-0-|
C|--0-------------------------------------------------|


    E  S E  S E  S E  S E  S E  S E  S E  S  
E|------------------------------------------|
C|----------0---------0---------0---------0-|
G|-------9---------9---------5---------5----|
C|------------------------------------------|
G|------------------------------------------|
C|--9--9------9--9------5--5------5--5------|


    E  S E  S E  S E  S E  S E  S E  S E  S  
E|------------------------------------------|
C|----------0---------0---------0---------0-|
G|-------5---------5---------4---------2----|
C|------------------------------------------|
G|------------------------------------------|
C|--0--0------0--0------0--0------0--0------|


    E  S E  S E  S E  S E  S E  S E  S E  S  
E|------------------------------------------|
C|----------0---------0---------0---------0-|
G|-------0---------0---------0---------0----|
C|------------------------------------------|
G|------------------------------------------|
C|--0--0------0--0------0--0------0--0------|


    E  S E  S E  S E  S E  S S S S S S S S S S  
E|----------0---------0----0-0-0-0-0-0-0-0-0-0-|
C|-------5---------5-------4-4-4-4-4-4-4-4-4-4-|
G|-------------------------0-0-0-0-0-0-0-0-0-0-|
C|-----5---------5---------4-4-4-4-4-4-4-4-4-4-|
G|---------------------------------------------|
C|--0---------0---------0----------------------|


    S S S S S S S S S S  S S S S S S  S S S S S S S S  
E|--0-0-0-0-0-0-0-0-0-0--L-0-0-0-0-0--L-0-0-0-0-0-0-0-|
C|--2-2-2-0-0-0-0-0-0-0--L-0-0-0-0-0--L-0-0-0-0-0-0-0-|
G|--0-0-0-0-0-0-2-2-2-2s-4-4-4-4-4-4s-5-5-5-5-5-5-5-5-|
C|--2-2-2-0-0-0-0-0-0-0--L-0-0-0-0-0--L-0-0-0-0-0-0-0-|
G|--------------2-2-2-2s-4-4-4-4-4-4s-5-5-5-5-5-5-5-5-|
C|--------------0-0-0-0--L-0-0-0-0-0--L-0-0-0-0-0-0-0-|


    E  S E  S E  S E  S E  S E  S E  S E  S  
E|----------0---------0---------0---------0-|
C|-------5---------5---------0---------0----|
G|------------------------------------------|
C|------------------------------------------|
G|------------------------------------------|
C|--5--5------5--5------5--5------5--5------|


    E  S S S S S  S S S S S S S S S S S S S S S S S  
E|--0--0-0-0-0-0--0-0-0-0-0-0-0-0-0-0-0-0-0-0-0-0-0-|
C|--5--5-5-5-5-5p-4-4-4-4-4-0-0-0-0-0-0-0-0-0-0-0-0-|
G|--0--0-0-0-0-0--0-0-0-0-0-5-5-5-4-4-4-0-0-0-0-0-0-|
C|--0--0-0-0-0-0--0-0-0-0-0-0-0-0-0-0-0-5-5-5-4-4-4-|
G|--0--0-0-0-0-0--0-0-0-0-0-0-0-0-0-0-0-0-0-0-0-0-0-|
C|--5--5-5-5-5-5--5-5-5-5-5-5-5-5-5-5-5-5-5-5-5-5-5-|


    E  S E  S E  S E  S S  S S S S S S S S S S S  
E|----------------------0--0-0-0-0-0-0-0-0-0-0-0-|
C|----------5---------5-5s-7-7-7-7-7-7-7-7-7-7-7-|
G|-------0---------0----0--0-0-0-0-0-0-0-0-0-0-0-|
C|-----------------------------------------------|
G|-----0---------0-------------------------------|
C|--0---------0----------------------------------|


    S S S S S S S S S S S S S S S S S S S S  S S S S  
E|--8-7-7-7-7-7-7-L-7-7-7-7-7-7-L-8-8-8-8-8-10-8-8-8-|
C|--7-7-7-7-7-7-7-9-7-7-7-7-7-7-L-7-7-7-7-7--L-7-7-7-|
G|--7-7-7-7-7-7-7-L-7-7-7-7-7-7-9-7-7-7-7-7--L-7-7-7-|
C|---------------------------------------------------|
G|---------------------------------------------------|
C|---------------------------------------------------|


    E  S E  S E  S E  S E  S E  S S S S S S S  
E|--------------------------------0-0-0-0-0-0-|
C|----------5---------5---------5-5-5-5-5-5-5-|
G|-------0---------0---------0----0-0-0-0-0-0-|
C|--------------------------------0-0-0-0-0-0-|
G|-----0---------0---------0------------------|
C|--5---------5---------5---------------------|


    S S S S S S S S S S S S S S S S S S S S S S S S  
E|--0-0-0-0-0-0-0-0-0-0-0-0-0-0-0-0-0-0-0-0-0-0-0-0-|
C|--5-5-5-5-5-5-4-4-4-4-4-4-0-0-0-0-0-0-0-0-0-0-0-0-|
G|--0-0-0-0-0-0-0-0-0-0-0-0-5-5-5-5-5-5-4-4-4-0-0-0-|
C|--0-0-0-0-0-0-0-0-0-0-0-0-0-0-0-0-0-0-0-0-0-0-0-0-|
G|--0-0-0-0-0-0-0-0-0-0-0-0-0-0-0-0-0-0-0-0-0-0-0-0-|
C|--5-5-5-5-5-5-5-5-5-5-5-5-5-5-5-5-5-5-5-5-5-5-5-5-|


    E  S S S S S S S S S S S S S S S S S S S S S S  
E|-------------------------------------------------|
C|--5--5-5-5-5-5-5-5-5-5-5-5-4-4-4-4-4-4-4-4-4-4-4-|
G|--0--0-0-0-0-0-0-0-0-0-0-0-0-0-0-0-0-0-0-0-0-0-0-|
C|--5--5-5-5-5-5-5-5-5-5-5-5-4-4-4-4-4-4-4-4-4-4-4-|
G|--0--0-0-0-0-0-0-0-0-0-0-0-0-0-0-0-0-0-0-0-0-0-0-|
C|--0--0-0-0-0-0-0-0-0-0-0-0-0-0-0-0-0-0-0-0-0-0-0-|


    E  S S S S S  S S S S S S  S S S S S S S S S S S  
E|---------------------------------------------------|
C|--9--9-9-9-9-9s-7-7-7-7-7-7s-5-5-5-5-5-5-5-5-0-0-0-|
G|--0--0-0-0-0-0--L-0-0-0-0-0--L-0-0-0-0-0-0-0-0-0-0-|
C|--9--9-9-9-9-9s-7-7-7-7-7-7s-5-5-5-5-5-5-5-5-0-0-0-|
G|--0--0-0-0-0-0--L-0-0-0-0-0--L-0-0-0-0-0-0-0-0-0-0-|
C|--0--0-0-0-0-0--L-0-0-0-0-0--L-0-0-0-0-0-0-0-0-0-0-|


     E  S E  S E  S E  S E  S E  S E  S E  S  
E|-------------------------------------------|
C|-----------0---------0---------0---------0-|
G|*-------2---------2---------2---------2----|
C|*------------------------------------------|
G|-------------------------------------------|
C|---2--2------2--2------2--2------2--2------|


     E  S E  S E  S E  S E  S E  S E  S E  S  
E|-------------------------------------------|
C|-----------0---------0---------0---------0-|
G|--------4---------4---------4---------4----|
C|-------------------------------------------|
G|-------------------------------------------|
C|--/4--4------4--4------4--4------4--4------|


    E  S E  S E  S E  S E  S E  S E  S E  S  
E|------------------------------------------|
C|----------0---------0---------0---------0-|
G|-------5---------5---------5---------5----|
C|------------------------------------------|
G|------------------------------------------|
C|--5--5------5--5------5--5------5--5------|


     E  S E  S E  S E  S  E  S E  S E  S E  S    
E|---------------------------------------------||
C|-----------0---------0----------0---------0--||
G|--------9---------9----------7---------7----*||
C|--------------------------------------------*||
G|---------------------------------------------||
C|--/9--9------9--9------\7--7------7--7-------||


    E  S S S S S S S S S S S S S S S S S S S S S S  
E|--0--0-0-0-0-0-0-0-0-0-0-0-0-0-0-0-0-0-0-0-0-0-0-|
C|--0--0-0-0-0-0-0-0-0-0-0-0-0-0-0-0-0-0-0-0-0-0-0-|
G|--2--2-2-2-2-2-2-2-2-2-2-2-2-2-2-2-2-2-2-2-2-2-2-|
C|--0--0-0-0-0-0-0-0-0-0-0-0-0-0-0-0-0-0-0-0-0-0-0-|
G|--0--0-0-0-0-0-0-0-0-0-0-0-0-0-0-0-0-0-0-0-0-0-0-|
C|--2--2-2-2-2-2-2-2-2-2-2-2-2-2-2-2-2-2-2-2-2-2-2-|


     S S S S S S S S S S S S S S S S S S S S S S S S  
E|---0-0-0-0-0-0-0-0-0-0-0-0-0-0-0-0-0-0-0-0-0-0-0-0-|
C|---0-0-0-0-0-0-0-0-0-0-0-0-0-0-0-0-0-0-0-0-0-0-0-0-|
G|--/4-4-4-4-4-4-4-4-4-4-4-4-4-4-4-4-4-4-4-4-4-4-4-4-|
C|---0-0-0-0-0-0-0-0-0-0-0-0-0-0-0-0-0-0-0-0-0-0-0-0-|
G|---0-0-0-0-0-0-0-0-0-0-0-0-0-0-0-0-0-0-0-0-0-0-0-0-|
C|--/4-4-4-4-4-4-4-4-4-4-4-4-4-4-4-4-4-4-4-4-4-4-4-4-|


     S S S S S S S S S S S S S S S S S S S S S S S S  
E|---0-0-0-0-0-0-0-0-0-0-0-0-0-0-0-0-0-0-0-0-0-0-0-0-|
C|---0-0-0-0-0-0-0-0-0-0-0-0-0-0-0-0-0-0-0-0-0-0-0-0-|
G|--/5-5-5-5-5-5-5-5-5-5-5-5-5-5-5-5-5-5-5-5-5-5-5-5-|
C|---0-0-0-0-0-0-0-0-0-0-0-0-0-0-0-0-0-0-0-0-0-0-0-0-|
G|---0-0-0-0-0-0-0-0-0-0-0-0-0-0-0-0-0-0-0-0-0-0-0-0-|
C|--/5-5-5-5-5-5-5-5-5-5-5-5-5-5-5-5-5-5-5-5-5-5-5-5-|


     E  S S S S S S S S S S  E  S S S S S S S S S S  
E|---0--0-0-0-0-0-0-0-0-0-0--0--0-0-0-0-0-0-0-0-0-0-|
C|---0--0-0-0-0-0-0-0-0-0-0--0--0-0-0-0-0-0-0-0-0-0-|
G|--/9--9-9-9-9-9-9-9-9-9-9-\7--7-7-7-7-7-7-7-0-0-0-|
C|---0--0-0-0-0-0-0-0-0-0-0--0--0-0-0-0-0-0-0-0-0-0-|
G|---0--0-0-0-0-0-0-0-0-0-0--0--0-0-0-0-0-0-0-0-0-0-|
C|--/9--9-9-9-9-9-9-9-9-9-9-\7--7-7-7-7-7-7-7-0-0-0-|


    S S S  S S S S S S S S S S S S S S S S S S S S S  
E|--0-0-0--0-0-0-0-0-0-0-0-0-0-0-0-0-0-0-0-0-0-0-0-0-|
C|--0-0-0-/2-2-2-2-2-2-2-2-2-2-2-2-2-2-2-2-2-2-2-2-2-|
G|--0-0-0--0-0-0-0-0-0-0-0-0-0-0-0-0-0-0-0-0-0-0-0-0-|
C|--0-0-0--0-0-0-0-0-0-0-0-0-0-0-0-0-0-0-0-0-0-0-0-0-|
G|--0-0-0--0-0-0-0-0-0-0-0-0-0-0-0-0-0-0-0-0-0-0-0-0-|
C|--0-0-0-/2-2-2-2-2-2-2-2-2-2-2-2-2-2-2-2-2-2-2-2-2-|


     S S S S S S S S S S S S S S S S S S S S S S S S  
E|---0-0-0-0-0-0-0-0-0-0-0-0-0-0-0-0-0-0-0-0-0-0-0-0-|
C|--/4-4-4-4-4-4-4-4-4-4-4-4-4-4-4-4-4-4-4-4-4-4-4-4-|
G|---0-0-0-0-0-0-0-0-0-0-0-0-0-0-0-0-0-0-0-0-0-0-0-0-|
C|---0-0-0-0-0-0-0-0-0-0-0-0-0-0-0-0-0-0-0-0-0-0-0-0-|
G|---0-0-0-0-0-0-0-0-0-0-0-0-0-0-0-0-0-0-0-0-0-0-0-0-|
C|--/4-4-4-4-4-4-4-4-4-4-4-4-4-4-4-4-4-4-4-4-4-4-4-4-|


     S S S S S S S S S S S S S S S S S S S S S S S S  
E|---0-0-0-0-0-0-0-0-0-0-0-0-0-0-0-0-0-0-0-0-0-0-0-0-|
C|--/5-5-5-5-5-5-5-5-5-5-5-5-5-5-5-5-5-5-5-5-5-5-5-5-|
G|---0-0-0-0-0-0-0-0-0-0-0-0-0-0-0-0-0-0-0-0-0-0-0-0-|
C|---0-0-0-0-0-0-0-0-0-0-0-0-0-0-0-0-0-0-0-0-0-0-0-0-|
G|---0-0-0-0-0-0-0-0-0-0-0-0-0-0-0-0-0-0-0-0-0-0-0-0-|
C|--/5-5-5-5-5-5-5-5-5-5-5-5-5-5-5-5-5-5-5-5-5-5-5-5-|


     S S S S S S S S S S S S S S S S S S S S S S S S  
E|---0-0-0-0-0-0-0-0-0-0-0-0-0-0-0-0-0-0-0-0-0-0-0-0-|
C|--/7-7-7-7-7-7-7-7-7-7-7-7-7-7-7-7-7-7-7-7-7-7-7-7-|
G|---0-0-0-0-0-0-0-0-0-0-0-0-0-0-0-0-0-0-0-0-0-0-0-0-|
C|---0-0-0-0-0-0-0-0-0-0-0-0-0-0-0-0-0-0-0-0-0-0-0-0-|
G|---0-0-0-0-0-0-0-0-0-0-0-0-0-0-0-0-0-0-0-0-0-0-0-0-|
C|--/7-7-7-7-7-7-7-7-7-7-7-7-7-7-7-7-7-7-7-7-7-7-7-7-|


    S S S S S S S S S S S S S S S S S S S S S S S S  
E|--0-0-0-0-0-0-0-0-0-0-0-0-0-0-0-0-0-0-0-0-0-0-0-0-|
C|--7-7-7-7-7-7-7-7-7-7-7-7-7-7-7-7-7-7-7-7-7-0-0-0-|
G|--0-0-0-0-0-0-0-0-0-0-0-0-0-0-0-0-0-0-0-0-0-0-0-0-|
C|--0-0-0-0-0-0-0-0-0-0-0-0-0-0-0-0-0-0-0-0-0-0-0-0-|
G|--0-0-0-0-0-0-0-0-0-0-0-0-0-0-0-0-0-0-0-0-0-0-0-0-|
C|--7-7-7-7-7-7-7-7-7-7-7-7-7-7-7-7-7-7-7-7-7-0-0-0-|


    E   S  E   S  S  S  S  E   S  E   S  S  S  S  S  S  S  E   S  
E|-----12-12--10-10-12-10-10--10-10--10-10-10-10-10-10-10-10--10-|
C|------0--0---0--0--0--0-12--12-12--12-12-11-11-11-12-12-12--12-|
G|--0---0--0---0--0--0--0--0---0--0---0--0--0--0--0--0--0--0---0-|
C|--0---0--0---0--0--0--0--0---0--0---0--0--0--0--0--0--0--0---0-|
G|--0---0--0---0--0--0--0--0---0--0---0--0--0--0--0--0--0--0---0-|
C|--0---0--0---0--0--0--0--0---0--0---0--0--0--0--0--0--0--0---0-|


    E   S  E   S  S  S  S  E   S  S  S  S  S  S  S  S  S  S  E   S  
E|-----12-12--10-10-12-10-10--10-10-10-10-10-10-10-10-10-10-10--10-|
C|--0---0--0---0--0--0--0-12--12-12-12-12-11-11-11-11-11-11-11--11-|
G|--0---0--0---0--0--0--0--0---0--0--0--0--0--0--0-12-12-12-12--12-|
C|--0---0--0---0--0--0--0--0---0--0--0--0--0--0--0--0--0--0--0---0-|
G|--0---0--0---0--0--0--0--0---0--0--0--0--0--0--0--0--0--0--0---0-|
C|--0---0--0---0--0--0--0--0---0--0--0--0--0--0--0--0--0--0--0---0-|


    E   S  E   S  S  S  S  E   S  E   S  S  S  S  S  S  S  E   S  
E|-----12-12--10-10-12-10-10--10-10--10-10-10-10-10-10-10-10--10-|
C|------0--0---0--0--0--0-12--12-12--12-12-11-11-11-12-12-12--12-|
G|--0---0--0---0--0--0--0--0---0--0---0--0--0--0--0--0--0--0---0-|
C|--0---0--0---0--0--0--0--0---0--0---0--0--0--0--0--0--0--0---0-|
G|--0---0--0---0--0--0--0--0---0--0---0--0--0--0--0--0--0--0---0-|
C|--0---0--0---0--0--0--0--0---0--0---0--0--0--0--0--0--0--0---0-|


     E   S  S  S  S  S  S  S  S  S  S  S  S  S  S  S  S  S  S  S  E   S  
E|--10--10-10-10-10-10-10-10-10-10-10-10-10-10-10-10-10-10-10-10-10--10-|
C|---0---0--0--0--0-12-12-12-11-11-11-11-11-11-11-11-11-12-12-12-12--12-|
G|---0---0--0--0--0--0--0--0--0--0--0-12-12-12--0--0--0--0--0--0--0---0-|
C|---0---0--0--0--0--0--0--0--0--0--0--0--0--0--0--0--0--0--0--0--0---0-|
G|---0---0--0--0--0--0--0--0--0--0--0--0--0--0--0--0--0--0--0--0--0---0-|
C|---0---0--0--0--0--0--0--0--0--0--0--0--0--0--0--0--0--0--0--0--0---0-|


    E   S  E   S  S  S  S  E   S  E   S  S  S  S  S  S  S  E   S  
E|-----12-12--10-10-12-10-10--10-10--10-10-10-10-10-10-10-10--10-|
C|------0--0---0--0--0--0-12--12-12--12-12-11-11-11-12-12-12--12-|
G|--0---0--0---0--0--0--0--0---0--0---0--0--0--0--0--0--0--0---0-|
C|--0---0--0---0--0--0--0--0---0--0---0--0--0--0--0--0--0--0---0-|
G|--0---0--0---0--0--0--0--0---0--0---0--0--0--0--0--0--0--0---0-|
C|--0---0--0---0--0--0--0--0---0--0---0--0--0--0--0--0--0--0---0-|


     S  S  S   S  S  S  S S S  S S S S S S S S S S S S S S S  
E|---0--0--0---0--0--0--0-0-0--0-0-0-0-0-0-0-0-0-0-0-0-0-0-0-|
C|--12-12-12-\11-11-11-\9-9-9-\7-7-7-5-5-5-4-4-4-4-4-4-0-0-0-|
G|---0--0--0---0--0--0--0-0-0--0-0-0-0-0-0-0-0-0-0-0-0-0-0-0-|
C|--12-12-12-\11-11-11-\9-9-9-\7-7-7-5-5-5-4-4-4-4-4-4-0-0-0-|
G|---0--0--0---0--0--0--0-0-0--0-0-0-0-0-0-0-0-0-0-0-0-0-0-0-|
C|---0--0--0---0--0--0--0-0-0--0-0-0-0-0-0-0-0-0-0-0-0-0-0-0-|


    E   S  E   S  S  S  S  E   S  E   S  S  S  S  S  S  S  E   S  
E|-----12-12--10-10-12-10-10--10-10--10-10-10-10-10-10-10-10--10-|
C|------0--0---0--0--0--0-12--12-12--12-12-11-11-11-12-12-12--12-|
G|--0---0--0---0--0--0--0--0---0--0---0--0--0--0--0--0--0--0---0-|
C|--0---0--0---0--0--0--0--0---0--0---0--0--0--0--0--0--0--0---0-|
G|--0---0--0---0--0--0--0--0---0--0---0--0--0--0--0--0--0--0---0-|
C|--0---0--0---0--0--0--0--0---0--0---0--0--0--0--0--0--0--0---0-|


    E   S  E   S  S  S  S  E   S  E   S  S  S  S  S  S  S  S  S  S  
E|-----12-12--10-10-12-10-10--10-10--10-10-10-10-10-10-10-10-10-10-|
C|------0--0---0--0--0--0-12--12-12--12-12-11-11-12-12-12-12-12-12-|
G|--0---0--0---0--0--0--0--0---0--0---0--0--0--0--0--0--0--0--0--0-|
C|--0---0--0---0--0--0--0--0---0--0---0--0--0--0--0--0--0--0--0--0-|
G|--0---0--0---0--0--0--0--0---0--0---0--0--0--0--0--0--0--0--0--0-|
C|--0---0--0---0--0--0--0--0---0--0---0--0--0--0--0--0--0--0--0--0-|


     E   S  E  S E   S  E  S E   S  E  S E   S  E  S  
E|---------12----------12----------10----------10----|
C|-------------0-----------0-----------0-----------0-|
G|*-----12----------12----------10----------10-------|
C|*--------------------------------------------------|
G|---------------------------------------------------|
C|---0-----------0-----------0-----------0-----------|


    E  S E  S E  S E  S E  S E  S E  S E  S  
E|-------7---------7---------8---------8----|
C|----------0---------0---------0---------0-|
G|-----7---------7---------9---------9------|
C|------------------------------------------|
G|------------------------------------------|
C|--0---------0---------0---------0---------|


    E   S  E  S E   S  E  S E   S  E  S E   S  E  S  
E|--------12----------12----------10----------10----|
C|------------0-----------0-----------0-----------0-|
G|-----12----------12----------10----------10-------|
C|--------------------------------------------------|
G|--------------------------------------------------|
C|--0-----------0-----------0-----------0-----------|


    E  S E  S E  S E  S E  S E  S E  S E  S      W                H         
E|-------7---------7---------3---------3-----||----------------------------|
C|----------0---------0---------0---------0--||----------------------------|
G|-----7---------7---------4---------4------*||----------------------------|
C|------------------------------------------*||----------------------------|
G|-------------------------------------------||----------------------------|
C|--0---------0---------0---------0----------||----------------------------|


    E  S E  S E  S E  S E  S E  S E  S E  S  
E|-------7---------7---------7---------7----|
C|----------0---------0---------0---------0-|
G|-----7---------7---------7---------7------|
C|------------------------------------------|
G|------------------------------------------|
C|--0---------0---------0---------0---------|


     E  S E  S E  S E  S  E  S E  S E  S E  S  
E|--------------------------------------------|
C|-----------0---------0----------0---------0-|
G|--------0---------0----------0---------0----|
C|--------------------------------------------|
G|--------------------------------------------|
C|--/4--4------4--4------/5--5------5--5------|


    E  S S  S  S S  S S S  S  S S  S S S  S S S  S  S E  S  
E|---------------------------------------------------------|
C|---------------------------------------------------------|
G|-----------------------------------0---------------------|
C|---------------4p-0---0h-4p-0-4h-5---4p-0---0h-4p-0----0-|
G|-------0h-4h-5------0---------------------0---------5----|
C|--0--0---------------------------------------------------|


     E  S E  S E  S E  S  E  S E  S E  S E  S  
E|--------------------------------------------|
C|-----------0---------0----------0---------0-|
G|--------0---------0----------0---------0----|
C|--------------------------------------------|
G|--------------------------------------------|
C|--/4--4------4--4------/5--5------5--5------|


    E  S S  S  S S  S S S  S  S S  S S S  S S S  S  S E  S  
E|---------------------------------------------------------|
C|----------------------------------------------------0----|
G|-----------------------------------0-4p-0---0h-4h-5----5-|
C|---------------4p-0---0h-4p-0-4h-5--------0--------------|
G|-------0h-4h-5------0------------------------------------|
C|--0--0---------------------------------------------------|


     E  S E  S E  S E  S  E  S E  S E  S E  S  
E|--------------------------------------------|
C|-----------0---------0----------0---------0-|
G|--------5---------5----------4---------4----|
C|--------------------------------------------|
G|--------------------------------------------|
C|--/4--4------4--4------/5--5------5--5------|


    E  S S  S  S S  S S S  S  S S  E  S  S  S S  S  S E  S  
E|---------------------------------------------------------|
C|---------------4p-0---0h-4p-0-4s-7--0h-4p-0-0h-4p-0----0-|
G|-------0h-4h-5------0-------------------------------5----|
C|---------------------------------------------------------|
G|---------------------------------------------------------|
C|--0--0---------------------------------------------------|


     E  S E  S E  S E  S  E  S E  S E  S E  S  
E|--------------------------------------------|
C|-----------0---------0----------0---------0-|
G|--------5---------5----------4---------4----|
C|--------------------------------------------|
G|--------------------------------------------|
C|--/4--4------4--4------/5--5------5--5------|


    S S S S S S S S S S S S S S S S S S S S S S S S  
E|--0-0-0-0-0-0-0-0-0-0-0-0-0-0-0-0-0-0-0-0-0-0-0-0-|
C|--0-0-0-0-0-0-0-0-0-0-0-0-0-0-0-0-0-0-0-0-0-0-0-0-|
G|--4-4-4-4-4-4-4-4-4-4-4-4-4-4-4-4-4-4-4-4-4-4-4-4-|
C|--0-0-0-0-0-0-0-0-0-0-0-0-0-0-0-0-0-0-0-0-0-0-0-0-|
G|--------------------------------------------------|
C|--------------------------------------------------|


    S S S S S S S S S S S S S S S S S S S S S S S S  
E|--0-0-0-0-0-0-0-0-0-0-0-0-0-0-0-0-0-0-0-0-0-0-0-0-|
C|--0-0-0-0-0-0-0-0-0-0-0-0-0-0-0-0-0-0-0-0-0-0-0-0-|
G|--5-5-5-5-5-5-5-5-5-5-5-5-5-5-5-5-5-5-5-5-5-5-5-5-|
C|--0-0-0-0-0-0-0-0-0-0-0-0-0-0-0-0-0-0-0-0-0-0-0-0-|
G|--------------------------------------------------|
C|--------------------------------------------------|


    S S S S S S S S S S S S S S S S S S S S S S S S  
E|--0-0-0-0-0-0-0-0-0-0-0-0-0-0-0-0-0-0-0-0-0-0-0-0-|
C|--0-0-0-0-0-0-0-0-0-0-0-0-0-0-0-0-0-0-0-0-0-0-0-0-|
G|--7-7-7-7-7-7-7-7-7-7-7-7-7-7-7-7-7-7-7-7-7-7-7-7-|
C|--0-0-0-0-0-0-0-0-0-0-0-0-0-0-0-0-0-0-0-0-0-0-0-0-|
G|--7-7-7-7-7-7-7-7-7-7-7-7-7-7-7-7-7-7-7-7-7-7-7-7-|
C|--0-0-0-0-0-0-0-0-0-0-0-0-0-0-0-0-0-0-0-0-0-0-0-0-|


    S S S S S S S S S S S S S S S S S S S S S S S S  
E|--0-0-0-0-0-0-0-0-0-0-0-0-0-0-0-0-0-0-0-0-0-0-0-0-|
C|--0-0-0-0-0-0-0-0-0-0-0-0-0-0-0-0-0-0-0-0-0-0-0-0-|
G|--9-9-9-9-9-9-9-9-9-9-9-9-9-9-9-9-9-9-9-9-9-9-9-9-|
C|--0-0-0-0-0-0-0-0-0-0-0-0-0-0-0-0-0-0-0-0-0-0-0-0-|
G|--9-9-9-9-9-9-9-9-9-9-9-9-9-9-9-9-9-9-9-9-9-9-9-9-|
C|--0-0-0-0-0-0-0-0-0-0-0-0-0-0-0-0-0-0-0-0-0-0-0-0-|


    E  S S S S E  S S S S E  S S S S E  S S S S  
E|--0--0-0-0-0-0--0-0-0-0-0--0-0-0-0-0--0-0-0-0-|
C|--0--0-0-0-0-0--0-0-0-0-0--0-0-0-0-0--0-0-0-0-|
G|--0--0-0-0-0-0--0-0-0-0-0--0-0-0-0-0--0-0-0-0-|
C|--0--0-0-0-0-5--5-5-5-5-0--0-0-0-0-7--7-7-7-7-|
G|--0--0-0-0-0-5--5-5-5-5-0--0-0-0-0-7--7-7-7-7-|
C|--0--0-0-0-0-5--5-5-5-5-0--0-0-0-0-7--7-7-7-7-|


    E  S S S S E  S S S S S S S S S S S S S S S S  
E|--0--0-0-0-0-0--0-0-0-0-0-0-0-0-0-0-0-0-0-0-0-0-|
C|--0--0-0-0-0-0--0-0-0-0-4-5-4-4-4-4-4-5-4-4-4-4-|
G|--0--0-0-0-0-0--0-0-0-0-0-0-0-0-0-0-0-0-0-0-0-0-|
C|--0--0-0-0-0-5--5-5-5-5-0-0-0-0-0-0-0-0-0-0-0-0-|
G|--0--0-0-0-0-5--5-5-5-5-0-0-0-0-0-0-0-0-0-0-0-0-|
C|--0--0-0-0-0-5--5-5-5-5-0-0-0-0-0-0-0-0-0-0-0-0-|


    E  S S S S E  S S S S E  S S S S E  S S S S  
E|--0--0-0-0-0-0--0-0-0-0-0--0-0-0-0-0--0-0-0-0-|
C|--0--0-0-0-0-0--0-0-0-0-0--0-0-0-0-0--0-0-0-0-|
G|--0--0-0-0-0-0--0-0-0-0-0--0-0-0-0-0--0-0-0-0-|
C|--0--0-0-0-0-5--5-5-5-5-0--0-0-0-0-7--7-7-7-7-|
G|--0--0-0-0-0-5--5-5-5-5-0--0-0-0-0-7--7-7-7-7-|
C|--0--0-0-0-0-5--5-5-5-5-0--0-0-0-0-7--7-7-7-7-|


    E  S S S S E  S S S S S S S S S S S S S S E     W                H         
E|--0--0-0-0-0-0--0-0-0-0-0-0-0-0-0-0-0-0-0-0----|----------------------------|
C|--0--0-0-0-0-0--0-0-0-0-5-4-4-4-4-4-0-0-0-0----|----------------------------|
G|--0--0-0-0-0-0--0-0-0-0-0-0-0-0-0-0-4-4-4-5----|----------------------------|
C|--0--0-0-0-0-5--5-5-5-5-0-0-0-0-0-0-0-0-0-0----|----------------------------|
G|--0--0-0-0-0-5--5-5-5-5-0-0-0-0-0-0-0-0-0-0----|----------------------------|
C|--0--0-0-0-0-5--5-5-5-5-0-0-0-0-0-0-0-0-0-0----|----------------------------|


    W                H           E  S S S S S S S S S S E  S S S S E  S S S S  
E|----------------------------|-----0-0-0-0-x-x-x-x-x-x-0--0-0-0-0-0--0-0-0-0-|
C|----------------------------|--0--0-0-0-0-x-x-x-x-x-x-0--0-0-0-0-0--0-0-0-0-|
G|----------------------------|--0--0-0-0-0-x-x-x-x-x-x-0--0-0-0-0-0--0-0-0-0-|
C|----------------------------|--0--0-0-0-0-x-x-x-x-x-x-0--0-0-0-0-5--5-5-5-5-|
G|----------------------------|--0--0-0-0-0-x-x-x-x-x-x-0--0-0-0-0-5--5-5-5-5-|
C|----------------------------|--0--0-0-0-0-x-x-x-x-x-x-0--0-0-0-0-5--5-5-5-5-|


    E  S S S S S S S S S S E  S S S S E  S S S S  
E|--0--0-0-0-0-x-x-x-x-x-x-0--0-0-0-0-0--0-0-0-0-|
C|--0--0-0-0-0-x-x-x-x-x-x-0--0-0-0-0-0--0-0-0-0-|
G|--0--0-0-0-0-x-x-x-x-x-x-0--0-0-0-0-0--0-0-0-0-|
C|--0--0-0-0-0-x-x-x-x-x-x-0--0-0-0-0-7--7-7-7-7-|
G|--0--0-0-0-0-x-x-x-x-x-x-0--0-0-0-0-7--7-7-7-7-|
C|--0--0-0-0-0-x-x-x-x-x-x-0--0-0-0-0-7--7-7-7-7-|


    E  S S S S S S S S S S E  S S S S E  S S S S  
E|--0--0-0-0-0-x-x-x-x-x-x-0--0-0-0-0-0--0-0-0-0-|
C|--0--0-0-0-0-x-x-x-x-x-x-0--0-0-0-0-0--0-0-0-0-|
G|--0--0-0-0-0-x-x-x-x-x-x-0--0-0-0-0-0--0-0-0-0-|
C|--0--0-0-0-0-x-x-x-x-x-x-0--0-0-0-0-5--5-5-5-5-|
G|--0--0-0-0-0-x-x-x-x-x-x-0--0-0-0-0-5--5-5-5-5-|
C|--0--0-0-0-0-x-x-x-x-x-x-0--0-0-0-0-5--5-5-5-5-|


    E  S S S S S S S S S S S S S S S S S S S S S S  
E|--0--0-0-0-0-x-x-x-x-x-x-0-0-0-0-0-0-0-0-0-0-0-0-|
C|--0--0-0-0-0-x-x-x-x-x-x-4-5-4-4-4-4-4-5-4-4-4-4-|
G|--0--0-0-0-0-x-x-x-x-x-x-0-0-0-0-0-0-0-0-0-0-0-0-|
C|--0--0-0-0-0-x-x-x-x-x-x-0-0-0-0-0-0-0-0-0-0-0-0-|
G|--0--0-0-0-0-x-x-x-x-x-x-0-0-0-0-0-0-0-0-0-0-0-0-|
C|--0--0-0-0-0-x-x-x-x-x-x-0-0-0-0-0-0-0-0-0-0-0-0-|


    E  S S S S S S S S S S E  S S S S E  S S S S  
E|--0--0-0-0-0-x-x-x-x-x-x-0--0-0-0-0-0--0-0-0-0-|
C|--0--0-0-0-0-x-x-x-x-x-x-0--0-0-0-0-0--0-0-0-0-|
G|--0--0-0-0-0-x-x-x-x-x-x-0--0-0-0-0-0--0-0-0-0-|
C|--0--0-0-0-0-x-x-x-x-x-x-0--0-0-0-0-5--5-5-5-5-|
G|--0--0-0-0-0-x-x-x-x-x-x-0--0-0-0-0-5--5-5-5-5-|
C|--0--0-0-0-0-x-x-x-x-x-x-0--0-0-0-0-5--5-5-5-5-|


    E  S S S S S S S S S S E  S S S S E  S S S S  
E|--0--0-0-0-0-x-x-x-x-x-x-0--0-0-0-0-0--0-0-0-0-|
C|--0--0-0-0-0-x-x-x-x-x-x-0--0-0-0-0-0--0-0-0-0-|
G|--0--0-0-0-0-x-x-x-x-x-x-0--0-0-0-0-0--0-0-0-0-|
C|--0--0-0-0-0-x-x-x-x-x-x-0--0-0-0-0-7--7-7-7-7-|
G|--0--0-0-0-0-x-x-x-x-x-x-0--0-0-0-0-7--7-7-7-7-|
C|--0--0-0-0-0-x-x-x-x-x-x-0--0-0-0-0-7--7-7-7-7-|


    E  S S S S S S S S S S E  S S S S E  S S S S  
E|--0--0-0-0-0-x-x-x-x-x-x-0--0-0-0-0-0--0-0-0-0-|
C|--0--0-0-0-0-x-x-x-x-x-x-0--0-0-0-0-0--0-0-0-0-|
G|--0--0-0-0-0-x-x-x-x-x-x-0--0-0-0-0-0--0-0-0-0-|
C|--0--0-0-0-0-x-x-x-x-x-x-0--0-0-0-0-5--5-5-5-5-|
G|--0--0-0-0-0-x-x-x-x-x-x-0--0-0-0-0-5--5-5-5-5-|
C|--0--0-0-0-0-x-x-x-x-x-x-0--0-0-0-0-5--5-5-5-5-|


    E  S S S S S S S S S S S S S S S S S S S S E    
E|--0--0-0-0-0-x-x-x-x-x-x-0-0-0-0-0-0-0-0-0-0----||
C|--0--0-0-0-0-x-x-x-x-x-x-5-4-4-4-4-4-0-0-0-0----||
G|--0--0-0-0-0-x-x-x-x-x-x-0-0-0-0-0-0-4-4-4-5----||
C|--0--0-0-0-0-x-x-x-x-x-x-0-0-0-0-0-0-0-0-0-0----||
G|--0--0-0-0-0-x-x-x-x-x-x-0-0-0-0-0-0-0-0-0-0----||
C|--0--0-0-0-0-x-x-x-x-x-x-0-0-0-0-0-0-0-0-0-0----||




Duration Legend
---------------
W - whole
H - half
Q - quarter
E - 8th
S - 16th
T - 32nd
X - 64th
. - note dotted
|-n-|  - n-tuplets




************************************

| x   Dead note
| g   Grace note
| h   Hammer-on
| p   Pull-off
| br  Bend release
| /   Slide up
| \   Slide down
| s   Legato slide
| L  Tied note

************************************
Suggest correction
comments
print report bad tab
6 comments total. Showing first comments. show 1 bad comment
0 reply
dsotm73 81 wrote on April 7 2008, 08:17 pm

perfection.

0 reply
jake199 10 wrote on July 18 2008, 12:00 am

great tab love the song 5 stars :D

guest
You may want to rate the tab now too:
select rating
Wanna post a correction for this tab? Suggest correction