Oops, an error
Loading. Please wait.

Ocean Tab

version 1
version 1

Whole song

340,653 views 174 this week
36 commentsread comments
1 2 3 4 5
x 36
add to favorites
launch autoscroll
font size
0
reset
how to read this tab
guitar tuner
Autoscroll
slow
fast
+/-
esc
set tempo
stop
Help us to improve Ultimate-Guitar.com Take our survey!
×
Author
Tuning
C G C G C E
Tuning - C3C2-G3G2-C4C3-G4G3-C4C4-E4E4 
Capo - 2nd Fret (tab relative to capo)

[0:00]
E|-12*---------------------------------------------------------------------|
C|-12*-----------------------2~--2h4-2h4-2h4p2p0-----0h2p0-0h2~--2--2--2---|
G|-12*-----------------0h2h4---------------------5p4--------------0--0--0--|
C|-12*-----------0h2h4---------------------------------------------0--0--0-|
G|-12*-0-0h2h4h5-----------------------------------------------------------|
C|-12*---------------------------------------------------------------------|

E|-----------------------------------------------|
C|-2h4-2h4p2p0-----------------------------------|
G|-------------4-4-4h5p4p2-2h4p2p0---------------|
C|---------------------------------4-2p0---------|
G|---------------------------------------0h4-4h5-|
C|-----------------------------------------------|

[0:14]
E|-------------------------------------------------------------------------------------------------------|
C|-------------------------------------------------------------------------------------------------------|
G|-------------------------------------------------------------------------------------------------------|
C|-0---0---0---0---0---0---0---0---0---0---0---0---0---0---0---0---0---0---0---0---0---0---0---0---0-----|
G|--5-5-5-5-5-5-5-5-5-5-5-5-5-5-5-5-5-5-4-4-4-4-4-4-4-4-4-4-4-4-4-4-4-4-2-2-2-2-2-2-2-2-2-2-2-2-2-2-2-2~-| 
C|-------------------------------------------------------------------------------------------------------|

this bit will be G2|-5---4---2---| etc. on the 12-string
                 G3|---5---4---2-|
 
[0:24]
E|------------------------------------|
C|-----------------------0------------|
G|----------------------0-0-4h5p0h4h5-|
C|------0h4p0---4-0h4h5---------------|
G|-0-0h4-----0h4-4--------------------|
C|------------------------------------|

E|------------------------------------------------------------------------------------------------|
C|0h4p0-0h4p0-4h5-4h5p0-0-0h4p0h5-5/7\5-4h5p4-4h5-4h5-4h5-4h5-4h5-4h5-4h5-4h5p4p0-----------------|
G|--------------------------------------------------------------------------------5-4p0-----------|
C|--------------------------------------------------------------------------------------5-4p0-----|
G|--------------------------------------------------------------------------------------------4h5-|
C|------------------------------------------------------------------------------------------------|

[0:34]
E|---------------------------|
C|---------------------------|
G|---------------------------|
C|-0--0--0--0--0--0--0--0----|
G|--55-55-55-55-55-55-55-55~-|
C|---------------------------|

[0:40]
E|------3~--3--3--3--3---3p1p0-------------------------|
C|-----0~--0-0--0--0--0-------0h2-0h2-2h4-2h4-2h4p2p0--|
G|----0~------0--0--0--0------------------------------4|
C|---0~------------------------------------------------|
G|--0~-------------------------------------------------|
C|-0~--------------------------------------------------|

E|---------------------------------3~-----------|
C|-0h2-0h2-2h4-2h4-2h4p2p0---0h2p0-0~--2~-2~-2~-|
G|-------------------------4--------------------|
C|----------------------------------------------|
G|----------------------------------------------|
C|----------------------------------------------|

[0:52]
E|-3h5p3-3-3p1p0-------------------------------------------------------||-----------------------|
C|-0~----0------0h2-2h4-2h4p2p0----------------------------------------||-----------------------|
G|------------------------------4p2p0----------------------------------||-----------------------|
C|------------------------------------4-2p0---0--0--0--0--0--0--0--0---||-------0--0--0--0--0---| 
G|------------------------------------------4--44-44-44-44-44-44-44-44-||-4-4/5--55-55-55-55-55-|
C|---------------------------------------------------------------------||-----------------------|(x3)

{1:10]
E|----------------------------------------------------------|
C|----------------------------------------------------------|
G|-----0h2h4h5-4h5-4h5-4h5-5-5-5-5-5-5----------------------|
C|----------------------------------------4--4--------4--4--|
G|-0h4------------------------------------------------------|
C|--------------------------------------/4--4--4-4/5-5--5---|

E|-----------------------------3---------------------|
C|-0-0h2-0---2-2h4p2p0---0-2-0---0-------------------|
G|---------4-----------4-----------------------------|
C|-------------------------------------4-4-------5-5-|
G|---------------------------------------------------|
C|---------------------------------/4-4-4-4-4/5-5-5--|

[1:26]
E|----3-0-------------------------------------------|
C|-------4-2-2h4p2p0--------------------------------|
G|-------------------4p2p0--------------------------|
C|-0~----------------------4-2-0---4--4--------4--4-|
G|-0~-----------------------------------------------|
C|-0~----------------------------/4--4--4-4/5-5--5--|

E|----------------------------------------------------|
C|----------------------4-----4-----------------------|
G|------------4-5----4h5-5-4h5-55---------------------|
C|-0~-----0h4-----0~-----------------4--4--------4--4-|
G|-0~-4h5---------0~----------------------------------|
C|-0~-------------0~---------------/4--4--4-4/5-5--5--|

[1:39]
E|----5-5-1h3p1p0----------5-5-1h3p1p0-------------5-5-|
C|----0-0---------0h2-4-4--0-0--------0h2-/4x-0----0-0-|
G|----0-0------------------0-0---------------------0-0-|
C|-0~-0-0------------------0-0------------------0~-0-0-|
G|-0~-0-0------------------0-0------------------0~-0-0-|
C|-0~-0-0------------------0-0------------------0~-0-0-|

E|1h3p1p0-----------------------------------------|
C|-------0h2-2/4-2/4-2h4p2p0----------------------|
G|---------------------------4-2-0----------------|
C|---------------------------------4-2-0-----4--4-|
G|---------------------------------------4/5-5--5-|
C|-------------------------------------------0-0--|

[1:52]
E|------3---3---3---3---3----5-5-5------------|------3---3---3---3---3---5-3--------------|
C|---2h4-2h4-2h4-2h4-2h4-2---2-2-2-/9-9-9\5-5-|---2h4-2h4-2h4-2h4-2h4-2------4-/9-9-9\5-5-|
G|--------------------------------------------|-------------------------------------------|
C|-0~----------------------0~------/9-9-9\5-5-|-0~----------------------0~-----/9-9-9\5-5-|
G|-0~----------------------0~-----------------|-0~----------------------0~----------------|
C|-0~----------------------0~------/9-9-9\5-5-|-0~----------------------0~-----/9-9-9\5-5-|

[2:05]
E|------3---3---3---3---3----5-3-5------------|------3---3---3---3---3---5-3--------------|
C|---2h4-2h4-2h4-2h4-2h4-2---2-4-2-/9-9-9\5-5-|---2h4-2h4-2h4-2h4-2h4-2------4-/9-9-9\5-5-|
G|--------------------------------------------|-------------------------------------------|
C|-0~----------------------0~------/9-9-9\5-5-|-0~----------------------0~-----/9-9-9\5-5-|
G|-0~----------------------0~-----------------|-0~----------------------0~----------------|
C|-0~----------------------0~------/9-9-9\5-5-|-0~----------------------0~-----/9-9-9\5-5-|

[2:19]
E|---------------------------3---3-0----------------------|---3p0----------------------------|
C|---2-0---2-2h4p2p0---0-2p0---2-----4-2p0---0-/9-9-9\5-5-|-------4-2-2h4p2p0----------------|
G|-------4-----------4---------------------4--------------|-------------------4-2-0----------|
C|-0~------------------------------------------/9-9-9\5-5-|-0~----------------------4-2-0-0~-|
G|-0~-----------------------------------------------------|-0~----------------------------0~-|
C|-0~------------------------------------------/9-9-9\5-5-|-0~----------------------------0~-|

[2:29]
E|---------------------------|---3-3-3-1---------3---3-0----------------------|
C|----------------/9-9-9\5-5-|-----------2-2-2h4---------4-2p0---0-/9-9-9\5-5-|
G|------------4-5------------|---------------------------------4--------------|
C|-0~-----2h4-----/9-9-9\5-5-|-0~-----------------0~---------------/9-9-9\5-5-|
G|-0~-2h4--------------------|-0~-----------------0~--------------------------|
C|-0~-------------/9-9-9\5-5-|-0~-----------------0~---------------/9-9-9\5-5-|

[2:39]
E|---1-1-0h1p0---0h1-1/3-1-0------------------------------|
C|-------------0---------------4h5p4-----------/9-9-9\5-5-|
G|-----------------------------------4p0------------------|
C|-0~-----------------------0~-----------5-4-0-/9-9-9\5-5-|
G|-0~-----------------------0~----------------------------|
C|-0~-----------------------0~-----------------/9-9-9\5-5-|

[2:45]
E|-12*--0------0----0-7*-0--0---------0-5*-0------0------0-7*-0----------3-0-----|
C|-12*------0---------7*--------0--0----5*-----0-----0-----7*----0---0-------4-4-|
G|-12*---0---0---0----7*--0---0--0--0---5*--0---0--0--0----7*--0--0---0-0--------|
C|-12*-0--0---0---0---7*---0---0--0--0--5*---0---0--0--0---7*---0--0---0---------|
G|-12*----------------7*----------------5*-----------------7*--------------------|
C|-12*----------------7*----------------5*-----------------7*--------------------|

[2:59]
E|----12*--0--0------7*--0-----0--0--0-5*-0--0---5-0----------------7*-0----------------0---0-|
C|----12*--------0---7*-----0----------5*--------0--4-2-2h4p2p0---0-7*----0-------------0---0-|
G|----12*---0--0--0--7*---0--0--0--0---5*--0--0--0--------------4---7*--0--0--------4-5-5-4-5-|
C|-0~-12*----0--0--0-7*----0--0--0--0--5*---0--0--------------------7*---0--0----0h4----0---0-|
G|-0~-12*------------7*----------------5*---------------------------7*--------0h4-------0---0-|
C|-0~-12*------------7*----------------5*---------------------------7*------------------0---0-|

[3:12]
E|----3---3---3---3--3-0--1-1--1---1-1--0-0-0--0---0--0-3-0----------------------------|
C|----0---0---0---0--0-0--0-0--0---0-0--0-0-0--0---0--0----4-2-2h4p2p0-----------------|
G|----0---0---0---0--0-0--0-0--0---0-0--0-0-0--0---0--0----------------4-2-0-----------|
C|-0~-0----0-------0---0-----0---0----0------0--0---0------------------------4-2-0-----|
G|-0~-0----0-------0---0-----0---0----0------0--0---0-these strums aren't exact----4/5-|
C|-0~-0----0-------0---0-----0---0----0------0--0---0----------------------------------|

[3:25]
E|----3--3--3--3--3--3--1--1--1--1--1--1--0--0--0--0--0--1-3-1h3p1p0---------------------------------|
C|----0--0--0--0--0--0--0--0--0--0--0--0--0--0--0--0--0--------------0h2-2/4-2/4-2h4p2p0-------------|
G|----0--0--0--0--0--0--0--0--0--0--0--0--0--0--0--0--0----------------------------------4-2-0-------|
C|-0~------0-----0-----0-----0-----0-----0-----0-----0-----------------------------------------4-2-0-|
G|-0~------0-----0-----0-----0-----0-----0-----0-----0----these strums aren't exact------------------|
C|-0~------0-----0-----0-----0-----0-----0-----0-----0-----------------------------------------------|

[3:39]
E|------------------------------------------------------------------------0-|
C|--------------------------------------------------------------------0---0-|
G|------------------------------------------------------------------4-5---5-|
C|-0~-------2p0-2/4-4-4--0-------2p0-2/4-4-4\2-2-0-------2-2-2/4-4h5----0-0-|
G|-0~-0h4h5--------------0-0h4h5-----------------0-0h4h5-0--------------0-0-|
C|-0~--------------------0-----------------------0-------0--------------0-0-|

[3:49]
E|---------------------------------------------------------------------------3--|
C|-------4-5-4-5/7-5-4-0-4-0-----0-2-0-2/4-4-4-4-------0-2-2-2h4p2p0---0-2-0--2-|
G|---4h5-------------------------------------------------------------4----------|
C|-0------------------------0-0h2----------------0-0h2--------------------------|
G|-0------------------------0--------------------0------------------------------|
C|-0------------------------0--------------------0------------------------------|

[3:59]
E|-3-0---------------------------------|-----------------------------------------|
C|-0---4-2-2h4p2p0---------------------|---5--5--4--4--4--55-5-5-5-4-0-----------|
G|-0---------------4-2-0---------------|----0--0--0--0--0--------------5-4-0-----|
C|-0---------------------4-2-0-0-----0-|-------------------------------------5-5-|
G|-0---------------------------0-4/5-0-|-----------------------------------------|
C|-0---------------------------0-----0-|-/5--5--5--5--5--5--5---5----------------|

[4:12]
E|---1-1-0-0-----------------------------------|---------------------------------------|
C|---0-0-0-0-4h5p4p0-------5-4h5p4p0-----------|---5--5----4--4-4--5-4-0---------------|
G|---0-0-0-0---------5-0-------------4-0-------|----0--0-0--0--0---------5-4-0---------|
C|-0---------------------0---------------5-4-0-|-------------------------------5-4-5-4-|
G|-0---------------------0-------------------0-|---------------------------------------|
C|-0---------------------0-------------------0-|-/5--5--5-5-5--5--5--------------------|

[4:25]
E|---------------------------------------------------------------|
C|---------------------4-------4-----4h5-4-5/7-5-4-4h5p4p0-------|
G|-----------4h5---4h5---4-4h5---4-------------------------5-4-4-|
C|-0-----0h4-----0-----------------0---------------------------0-|
G|-0-0h4---------0-----------------0---------------------------0-|
C|-0-------------0-----------------0---------------------------0-|

[4:30]
E|-----------------------------------------------------------------|
C|---9--9--9--9--9----4--5-4-0-----------------------------7-9-7---|
G|-----------------------------5-4-0---------9---7-9-7-7/9-------9-|
C|----0--0--0--0--0----0-------------5-4-0-------------------------|
G|---------------------------------------0-------------------------|
C|-/9--9--9--9--9--9\5--5----------------0-/9--9-------------------|

[4:42]
E|----------------------------------------------------------------------------------12*-|
C|-----4--4---------------4--0--0--4--0--0---5--5-5--4--4-4--0--0-0---7-7-7-7-7-7---12*-|
G|-------------44--44--4------------4--4----------------------4--4-4--5-5-5-5-5-5---12*-|
C|------0--0-----0---0-----0--0---------------0--0-0--0--0-0----------0-0-0-0-0-0---12*-|
G|----------------------------------------------------------------------------------12*-|
C|-9\5---5--5-5---5---5--5--5--5-5---5--5---5--5----5--5----5--5----5--5-5-5-5-5----12*-|

************************************

| x  Dead note
| h  Hammer-on
| p  Pull-off
| /  Slide up
| \  Slide down
| ~  Vibrato
 
************************************
Suggest correction
comments
print report bad tab
36 comments total. Showing first comments.
+9 reply
GsKoRn1 40 May 16, 2006 10:32 PM

I thought he had a capo at the 4th

0 reply
Guitarplaya27 439 May 27, 2006 11:04 PM

yep

0 reply
canned_peas 16 Jul 28, 2006 02:16 PM

The live is, but the studio might not be. Either way this tab is excellent.

guest
You may want to rate the tab now too:
select rating
Wanna post a correction for this tab? Suggest correction