Oops, an error
Loading. Please wait.

Only One Acoustic tab

1,720 views 21 this week
3 commentsread comments
1 2 3 4 5
x 4
add to favorites
×
Save as Personal and add changes to this tab that will be seen only by you. Learn more ›
×
You can save this tab as Personal to edit and correct it or add notes. All changes will be seen only by you. Learn more »
launch autoscroll
font size
0
reset
how to read this tab
guitar tuner
edit
Autoscroll
slow
fast
+/-
esc
set tempo
stop
** As of August 20, 2016, this tab has been updated. When I originally released the tab for whatever reason 
all of the words other than tabs got deleted, making the tab a little off with respect to playing style and 
tuning. I am now updating it to include all of those again, message me if I forgot anything. Thanks:)**

Song: Only One (Acoustic)
Album: Flesh & Blood (Deluxe)
Artist: John Butler Trio

Tuning: DADGCe
Capo: Fret 7

CHORDS

   C  F  A  A/G
e|-3--1--0--0---|
C|-0--0--0--0---|
G|-0--2--2--0---|
D|-2--3--2--2---|
A|-3--0--0--0---|
D|-x--0--x--3---|

[Intro]
It is easiest to play this by plucking the base notes with your thumb and the other three strings with your 
first three fingers

  C
e|---3---3---3---3---3---3---3---3---3---3---3---3---3---3---3---3-|
C|---0---0---0---0---0---0---0---0---0---0---0---0---0---0---0---0-|
G|---0---0---0---0---0---0---0---0---0---0---0---0---0---0---0---0-|
D|-----------------------------------------------------------------|
A|-3---3---3---3---3---3---3---3---3---3---3---3---3---3---3---3---|
D|-----------------------------------------------------------------|


[Verse / Chorus]
When switching between these chords, switch to the fingerings I wrote in the CHORDS section

  C        F       A
e|---3---0h1-1---0h0-0---0---0---0-|
C|---0---0h0-0---0h0-0---0---0---0-|
G|---0---0h2-2---0h2-2---2---2---0-|
D|-------------3-------2---2---2---|
A|-3---3---------------------------|
D|---------------------------------|


[Pre chorus]

  A/G                                  A
e|---------------------------------------------------------------------|
C|-------0---0---0---0---0---0---0---0---0---0---0---0---0---0---0---0-|
G|-------0---0---0---0---0---0---0---0---2---2---2---2---2---2---2---2-|
D|-2-2-2-2---2---2---2---2---2---2---2---2---2---2---2---2---2---2---2-|
A|-0-0-0---------------------------------------------------------------|
D|-3-3-3---3---3---3---3---3---3---3---0---0---0---0---0---0---0---0---|

  A/G                                  A
e|---------------------------------------------------|
C|---0---0---0---0---0---0---0---0---0---0---0---0---|
G|---0---0---0---0---0---0---0---0---2---2---2---2---|
D|---2---2---2---2---2---2---2---2---2---2---2---2---|
A|---------------------------------------------------|
D|-3---3---3---3---3---3---3---3---0---0---0---0---0-|


[Solo]

e|-----------------------------------------------------------------------------1-0-----------|
C|-----------0-2--------0---------------------------------------------0~-0---0-0---2-0---0---|
G|---------------2~-2h3---3p2p0---------3/5-2-------0-------0h2h3-2p0------0---------2-2-2-0-|
D|-3-3-3-3-3--------------------3/5-3-5-------3/5-3---3-0h3----------------------------------|
A|-------------------------------------------------------------------------------------------|
D|-------------------------------------------------------------------------------------------|

[Alternate Chorus]
Played after the solo, optional, but this is how it is in the recording

  C        F       A                              C  F  A
e|---1---0h0-0---0h0-0---0---0---0-|   You     e|-1--0--0-| 
C|---0---0h0-0---0h0-0---0---0---0-|   can     C|-0--0--0-|
G|---0---0h2-2---0h2-2---2---2---0-|   also    G|-0--2--2-|
D|-------------3-------2---2---2---|   strum   D|-2--3--2-|
A|-3---3---------------------------|   these   A|-3--0--0-|
D|---------------------------------|   chords  D|---------|

            
            
Suggest correction
Creating personal tab
Creating personal tab
You can edit any tab online and save it as your Personal.

You can edit, replace or remove any tab part or add personal notes – all changes will be seen only by you.

Personal tabs can be accessed anytime from any device, even offline.
Learn more »
comments
print report bad tab
3 comments total.
0 reply
Bradleyf42 96 Jun 15, 2016 01:05 PM

Im not sure if the tuning listed is wrong, but i tried in both open D and in standard and it did not sound much like the song

guest
You may want to rate the tab now too:
select rating
Wanna post a correction for this tab? Suggest correction