Oops, an error
Loading. Please wait.

Revolution tab

version 1
version 1

Whole song

23,685 views 12 this week
2 commentsread comments
1 2 3 4 5
x 4
add to favorites
×
Save as Personal and add changes to this tab that will be seen only by you. Learn more ›
×
You can save this tab as Personal to edit and correct it or add notes. All changes will be seen only by you. Learn more »
launch autoscroll
font size
0
reset
how to read this tab
guitar tuner
edit
Autoscroll
slow
fast
+/-
esc
set tempo
stop
Author
Difficulty
-------------------------------------------------------------------------------
                             Revolution - John Butler Trio
-------------------------------------------------------------------------------
Tabbed by: chucky176
Email: torge.santjer@gmail.com

Tuning: Standard


Intro (with Loop something like this)

e|---------------------------------------------------------------------------|
B|----------15------------15-------------------------------------------------|
G|--17--16--------17--12-----------------------------------------------------|
D|---------------------------------------------------------------------------|
A|---------------------------------------------------------------------------|
E|---------------------------------------------------------------------------|


Verse

    E  G  C  A

e|---------------------------------------------------------------------------|
B|---------------------------------------------------------------------------|
G|---------------------------------------------------------------------------|
D|--------5--2---------------------------------------------------------------|
A|--2--5--3--0---------------------------------------------------------------|
E|--0--3---------------------------------------------------------------------|


Chorus / Refrain

    C  G  D

e|--3--3--5------------------------------------------------------------------|
B|--3--3--5------------------------------------------------------------------|
G|--5--4--7------------------------------------------------------------------|
D|--5--5--7------------------------------------------------------------------|
A|--3--5--5------------------------------------------------------------------|
E|-----3---------------------------------------------------------------------|


Bridge

e|---------------------------------------------------------------------------|
B|---------------------------------------------------------------------------|
G|--16--16-~~----------------------------------------------------------------|
D|--16--16-~~----------------------------------------------------------------|
A|---------------------------------------------------------------------------|
E|---------------------------------------------------------------------------|

The solo was too hard to figure out cause of the effects like delay etc~
When i get the time ill add that later, but now relax this tab and raise your fist!
REVOLUTION!

************************************

| /   slide up
| \   slide down
| h   hammer-on
| p   pull-off
| ~   vibrato
| +   harmonic
| x   Mute note
| b   Bend
| pb  Pre-bend
| br  Bend release
| pbr Pre-bend release
| brb Bend release bend

************************************

            
            
Suggest correction
Creating personal tab
Creating personal tab
You can edit any tab online and save it as your Personal.

You can edit, replace or remove any tab part or add personal notes – all changes will be seen only by you.

Personal tabs can be accessed anytime from any device, even offline.
Learn more »
comments
print report bad tab
2 comments total.
0 reply
pomes 50 May 13, 2010 04:41 AM

Hey man great tab! You've done the hard part: getting it started!
Just a couple minor corrections, and I think I've got the steel drums part at 2:48.

***Play the D strumming twice***

Chorus / Refrain

C G D D

e|--3--3--5--5--|
B|--3--3--5--5--|
G|--5--4--7--7--|
D|--5--5--7--7--|
A|--3--5--5--5--|
E|-----3--------|


*** Your bridge sounded a bit off, and I think this sounds a bit better***
Bridge

e|----------|
B|----------|
G|--16--16--|
D|--17--17--|
A|----------|
E|----------|


***And here's the steel drum part***
Steel Drum

e|------------------------|
B|------------------------|
G|------------------------|
D|-10-9-10-12--12-9-10-12-|
A|------------------------|
E|------------------------|

0 reply
Simos93 10 Feb 06, 2013 01:24 AM

In my opinion the correct bridge is here..

------------------------------
------------------------------
--17--16--17----17-16-17------
-------------14----------14---
------------------------------
------------------------------

guest
You may want to rate the tab now too:
select rating
Wanna post a correction for this tab? Suggest correction