Oops, an error
Loading. Please wait.

Used To Get High bass

9,514 views 9 this week
1 commentread comment
1 2 3 4 5
1 last vote to show rating
add to favorites
×
Save as Personal and add changes to this tab that will be seen only by you. Learn more ›
×
You can save this tab as Personal to edit and correct it or add notes. All changes will be seen only by you. Learn more »
launch autoscroll
font size
0
reset
guitar tuner
edit
Autoscroll
slow
fast
+/-
esc
set tempo
stop
Difficulty
intermediate
This is my first attempt at a tab and no one has done this one yet. Awesome song and 
better live. NOTE: not 100% correct i put my own touch into some of the fills. Ull see what 
mean.
If u wanna contact me or juz abuse me find me at mrlister@hotmail.com

Intro:

E ----------------------------------|
A 88-88-88-------------6--8---------|
D -------------66-66-6-----8h10p8-6-|
G ----------------------------------|


E -----------------------------|
A 88-88-88-------------6\18-18-|
D -------------66-66-6---------|
G -----------------------------|


E ----------------------------------|
A 88-88-88-------------6--8---------|
D -------------66-66-6-----8h10p8-6-|
G ----------------------------------|


E --------------------------|
A 88-88-88-------------6--6-|
D -------------66-66-6------|
G --------------------------|

Verse:

E --------------------------|
A 88-88-88-------------6--7-|
D -------------66-66-6------|
G --------------------------|


E ----------------------------------|
A 88-88-88-------------6--8---------|
D -------------66-66-6-----8h10p8-6-|
G ----------------------------------|


E -------------------------------|
A 88-88-88-------------6--0-6-7--|
D -------------66-66-6-----------|
G ---------5-5-------------------|


E -------------------------------|
A 88-88-88-------------6--66-7---|
D -------------66-66-6-----------|
G -------------------------------|

Bridge:

E ------8--------8------------------|
A 8--6-----8--6-----------8-6\15-15-|
D ------------------6-6-6-----------|
G ----------------------------------|


E ------8--------8-----------------------|
A 8--6-----8--6-----------8-6--8---------|
D ------------------6-6-6-------8h10p8-6-|
G ---------------------------------------|

Chorus:

E --------------------------------|
A 4-4-4-4-8-8-8-8-6-6-6-6-6-6-6-6-|
D --------------------------------|
G --------------------------------|


E -------------------|
A 4-4-4-4-8-8-8-8-6~-|
D -------------------|
G -------------------|

Build up:

E ----------------------------------|
A 8~-----------------------------6~-|
D ---------8h10------10p8-6~--------|
G -------------8h10p8---------------|


E -----------------------------------|
A 4-----4-8-----8-6-6----6----6----6-|
D -----------------------------------|
G -----------------------------------|


End on:

E --
A 8~
D --
G --

            
            
Suggest correction
Creating personal tab
Creating personal tab
You can edit any tab online and save it as your Personal.

You can edit, replace or remove any tab part or add personal notes – all changes will be seen only by you.

Personal tabs can be accessed anytime from any device, even offline.
Learn more »
Give kudos to tab author, rate the tab!
1 2 3 4 5
comments
print report bad tab
1 comment total.
0 reply
lagtag 10 Sep 04, 2011 01:04 PM

It would be good if you add the structure of the song, other than that, great tab:D

guest
Wanna post a correction for this tab? Suggest correction