Oops, an error
Loading. Please wait.

Used To Get High Tab

version 1
version 1

Whole song

43,810 views 48 this week
no commentswrite comment
1 2 3 4 5
worth learning
x 4
add to favorites
launch autoscroll
font size
0
reset
how to read this tab
guitar tuner
Tab Pro tools
  • play this tab
  • loop segment
  • change instrument
  • show fretboard
  • metronome
Autoscroll
slow
fast
+/-
esc
set tempo
stop
Contributor
Difficulty
novice
-------------------------------------------------------------------------------
                             Used To Get High - John Butler
-------------------------------------------------------------------------------
Tabbed by:Leo_Monkey
Email:

Tuning:CGCGCE

e|----------------------------------------------------------------------------------|
B|--10b--------------------------8--------------------------------------------------|
G|------8-10-10-10-10-10-10-8-10---10-10-10-10-10-10-10-10-10-10-10-10-10-10-8-10---|
D|-------------------------------------------------------------------------------10-|
A|----------------------------------------------------------------------------------|
E|----------------------------------------------------------------------------------|

e|----------------------------------------------------------------------------------|
B|-------------------------------8--------------------------------------------------|
G|------8-10-10-10-10-10-10-8-10---10-10-10-10-10-10-10-10-10-10-10-10-10-10-8-10---|
D|-------------------------------------------------------------------------------10-|
A|----------------------------------------------------------------------------------|
E|----------------------------------------------------------------------------------|

then you play this.. it took me a while to count

e|------------------------------------------------------------------|
B|------------------------------------------------------------------|
G|--10-10-10-10-10-10-10-10-10-10-10-10-10-10-10-10-10-10-10-10-----|x4
D|------------------------------------------------------------------|
A|------------------------------------------------------------------|
E|------------------------------------------------------------------|

e|------------------------------------------------------------------|
B|------------------------------------------------------------------|
G|------------------------------------------------------------------|x2
D|------------------------------------------------------------------|
A|------------------------------------------------------------------|
E|--5-5---3-3-----8-8------5-5----3-3----8-8------------------------|

Chorus

e|------------------------------|
B|------------------------------|
G|------------------------------|
D|-1-1-1-1--5-5-5--3-3-3-3------|
A|-1-1-1-1--5-5-5--3-3-3-3------|
E|-1-1-1-1--5-5-5--3-3-3-3------|

e|------------------------------------------------------------------|
B|--------------------5/7/8-8/15p0----------------------------------|
G|--------------3-3/5-5/7/8-8/15p0----------------------------------|
D|-3---3-3/5~~--3-3/5-----------------------------------------------|
A|-3-3---3/5~~------------------------------------------------------|
E|------------------------------------------------------------------|

ill get to the rest later
comments
print report bad tab
I want to post or [tab]
guest
You may want to rate the tab now too:
select rating
Please do not post tabs as comments. Select "correction" instead!