Oops, an error
Loading. Please wait.

Tender Years Bass Tab

10 views 1 this week
no commentswrite comment
1 2 3 4 5
3 more votes to show rating
add to favorites
launch autoscroll
font size
0
reset
guitar tuner
Autoscroll
slow
fast
+/-
esc
set tempo
stop
Help us to improve Ultimate-Guitar.com Take our survey!
×
Author
[Intro]

    E  W                E  E  W                      E  W                      E  E    W
G|-----0-------r--------------------------r---------------------------r--------------------------|
D|--0----------e-----------0--2-----------e---------------------------e----------------0---------|
A|-------------s---------2----------------s--------------3------------s------------2-------------|
E|-------------t--------------------------t-----------3---------------t---------2----------------|


[Verse] 

    H   E H  E H  E H   E  E  H  E H  E H  E H  Q  H  E H  E H  E H  E E  H  E H  E H  E H  E
G|------------------------------------------------------------------------------------------------|
D|-------------------------0--2--2-2--2-2--2-2----------------------------------------------------|
A|----------------------2-----------------------2--3--3-3--3-3--3-3-------5--5-5--5-5--5-5--------|
E|--3---3-3--3-3--3-3------------------------------------------------3-5--------------------5-----|


[Chorus]

    H   E H  E H  E H   E  E  H  E H  E H  E H  Q  H  E H  E H  E H  E E  H  E H  E H  E H  E
G|------------------------------------------------------------------------------------------------|
D|-------------------------0--2--2-2--2-2--2-2----------------------------------------------------|
A|----------------------2-----------------------2--3--3-3--3-3--3-3-------5--5-5--5-5--5-5--------|
E|--3---3-3--3-3--3-3------------------------------------------------3-5--------------------5-----|


************************************
H - Half Note
Q - Quarter Note
E - Eighth Note
W - Whole Note
************************************
Suggest correction
Give kudos to tab author, rate the tab!
1 2 3 4 5
comments
print report bad tab
guest
You may want to rate the tab now too:
select rating
Wanna post a correction for this tab? Suggest correction