Oops, an error
Loading. Please wait.

Halloween Theme Bass Tab

version 1
version 1

Intro

Whole song

6,886 views 3 this week
4 commentsread comments
1 2 3 4 5
x 5
add to favorites
launch autoscroll
font size
0
reset
guitar tuner
Autoscroll
slow
fast
+/-
esc
set tempo
stop
Help us to improve Ultimate-Guitar.com Take our survey!
×
Author
Difficulty
novice
 Im pretty sure that this is right..........

g:---21-------21-------21----22-------|
d:------19-19----19-19----19----19----|   x2
a:------------------------------------|
e:------------------------------------|

g:---20-------20-------20----21-------|
d:------18-18----18-18----18----18----|   x2
a:------------------------------------|
e:------------------------------------|

 thats it... it sounds pretty good. have fun with it.
Suggest correction
comments
print report bad tab
4 comments total. Showing first comments.
+1 reply
pwninator123 50 Feb 02, 2008 08:03 PM

that sounds amazing 5 star

+1 reply
skjw 36 Feb 18, 2008 11:59 AM

this is awesome!!!!

+2 reply
Death2Preps 51 Mar 17, 2009 06:21 PM

Dude, this is the same tab as the guitar tab. The only difference is that on the guitar, the first two strings are E and B while on the bass it is G and D. Therefore, the notes for this tab are wrong.

guest
You may want to rate the tab now too:
select rating
Wanna post a correction for this tab? Suggest correction