Oops, an error
Loading. Please wait.

Halloween Theme Tab

version 3
version 3
25,488 views 24 this week
9 commentsread comments
1 2 3 4 5
x 30
add to favorites
×
Save as Personal and add changes to this tab that will be seen only by you. Learn more ›
×
You can save this tab as Personal to edit and correct it or add notes. All changes will be seen only by you. Learn more »
save as personal
new!
launch autoscroll
font size
0
reset
how to read this tab
guitar tuner
Autoscroll
slow
fast
+/-
esc
set tempo
stop
Author
Here is the theme to "Halloween". The tightest seriel killer movie i have ever seen.
This movie is the bomb. With the tightest them to it. Here u go

Theme > Halloween
Tuning > Standard (eBGDAE)
                                4x
e|-13-------13-------13----14-----|
B|----11-11----11-11----11----11--|
G|--------------------------------|
D|--------------------------------|
A|--------------------------------|
E|--------------------------------|
                                2x
e|-11-----11-----11---12----------|
B|----9-9----9-9----9----9--------|
G|--------------------------------|
D|--------------------------------|
A|--------------------------------|
E|--------------------------------|

                                4x
e|-13-------13-------13----14-----|
B|----11-11----11-11----11----11--|
G|--------------------------------|
D|--------------------------------|
A|--------------------------------|
E|--------------------------------|


e|-11-----11-----11---12----------|
B|----9-9----9-9----9----9--------|
G|--------------------------------|
D|--------------------------------|
A|--------------------------------|
E|--------------------------------|

e|--9-----9------9----10----------|
B|----7-7----7-7----7----7--------|
G|--------------------------------|
D|--------------------------------|
A|--------------------------------|
E|--------------------------------|


Well, there you have it. this is 100% correct. I am sure of it. HAVE FUN!!
Suggest correction
comments
print report bad tab
9 comments total. Showing first comments.
+1 reply
xd4v3bl4de1x 124 Sep 14, 2007 11:27 AM

just wanted to let you know....

i was watching a vid on myspace and that is the bass line played on the guitar.

e:-------------------------------------
B:-------------------------------------
G:-------------------------------------
D:-------------------------------------
A:-------------------------------------
E:-2-5---1~-----2--5---1~-----2--5---1~

http://vids.myspace.com/index.cfm?fuseaction=vids.individual&VideoID=1561230

ive been tryin to figure out how he plays it man... its hard to see.

0 reply
Cruiser101 83 Oct 26, 2007 03:10 PM

i think its 100% right. good job

0 reply
fifer 360 Oct 31, 2007 04:22 PM

I think that its actually 8 steps higher, I think it starts on a d note....so its like you said, but on the 20th fret of the first string...and I think the bass is actually:

A-------1---
E-2--5------

guest
You may want to rate the tab now too:
select rating
Wanna post a correction for this tab? Suggest correction