Oops, an error
Loading. Please wait.

Halloween Theme tab

version 5
84,961 views 18 this week
3 commentsread comments
1 2 3 4 5
x 17
add to favorites
×
Save as Personal and add changes to this tab that will be seen only by you. Learn more ›
×
You can save this tab as Personal to edit and correct it or add notes. All changes will be seen only by you. Learn more »
launch autoscroll
font size
0
reset
how to read this tab
guitar tuner
edit
Autoscroll
slow
fast
+/-
esc
set tempo
stop
Author
Difficulty
Artist: John Capernter
Song: Halloween Theme
By: Edgar20393


e-9----9----9--10--|
B--7-7--7-7--7---7-|
G------------------|x7
D------------------|
A------------------|
E------------------|

e-8----8----8--9---|
B--6-6--6-6--6--6--|
G------------------|x2
D------------------|
A------------------|
E------------------|

e-9----9----9--10--|
B--7-7--7-7--7---7-|
G------------------|x2
D------------------|
A------------------|
E------------------|

e-8----8----8--9---|
B--6-6--6-6--6--6--|
G------------------|x2
D------------------|
A------------------|
E------------------|

e-7----7----7--8---|
B--5-5--5-5--5--5--|
G------------------|x2
D------------------|
A------------------|
E------------------|

e-6----6----6--7---|
B--4-4--4-4--4--4--|
G------------------|x2
D------------------|
A------------------|
E------------------|

e-7----7----7--8---|
B--5-5--5-5--5--5--|
G------------------|x2
D------------------|
A------------------|
E------------------|

e-6----6----6--7---|
B--4-4--4-4--4--4--|
G------------------|x2
D------------------|
A------------------|
E------------------|

e-2----2----2--3---|
B--0-0--0-0--0--0--|
G------------------|x10
D------------------|
A------------------|
E------------------|

e-9----9----9--10--|
B--7-7--7-7--7---7-|
G------------------|x7
D------------------|
A------------------|
E------------------|

e-8----8----8--9---|
B--6-6--6-6--6--6--|
G------------------|x2
D------------------|
A------------------|
E------------------|

e-9----9----9--10--|
B--7-7--7-7--7---7-|
G------------------|x2
D------------------|
A------------------|
E------------------|

e-8----8----8--9---|
B--6-6--6-6--6--6--|
G------------------|x2
D------------------|
A------------------|
E------------------|

e-7----7----7--8---|
B--5-5--5-5--5--5--|
G------------------|x2
D------------------|
A------------------|
E------------------|

e-6----6----6--7---|
B--4-4--4-4--4--4--|
G------------------|x2
D------------------|
A------------------|
E------------------|

e-7----7----7--8---|
B--5-5--5-5--5--5--|
G------------------|x2
D------------------|
A------------------|
E------------------|

e-6----6----6--7---|
B--4-4--4-4--4--4--|
G------------------|x2
D------------------|
A------------------|
E------------------|

e-2----2----2--3---|
B--0-0--0-0--0--0--|
G------------------|x6
D------------------|
A------------------|
E------------------|

e-9----9----9--10--|
B--7-7--7-7--7---7-|
G------------------| "Repeat many times"
D------------------|
A------------------|
E------------------|


Coments: cartablanca_evitaelexeso@hotmail.com
Suggest correction
Creating personal tab
Creating personal tab
You can edit any tab online and save it as your Personal.

You can edit, replace or remove any tab part or add personal notes – all changes will be seen only by you.

Personal tabs can be accessed anytime from any device, even offline.
Learn more »
comments
print report bad tab
3 comments total.
0 reply
Vaagur 39 Apr 08, 2016 07:00 PM, edited at 11:01 pm

This part is played 9 times then 5 times, not 10 times and then 6 times. Otherwise I think the tabs are 100% accurate. :)e-2----2----2--3---|B--0-0--0-0--0--0--|G------------------|D------------------|A------------------|E------------------|

Also

e-9----9----9--10--|
B--7-7--7-7--7---7-|
G------------------|x7
D------------------|
A------------------|
E------------------|

Is only played 6 times at the start not 7.

0 reply
Vaagur 39 Apr 08, 2016 07:03 PM, edited at 11:04 pm

Forget my other comment, these are the right amount of times each parts plays.

e-9----9----9--10--|
B--7-7--7-7--7---7-|
G------------------|x6
D------------------|
A------------------|
E------------------|

e-8----8----8--9---|
B--6-6--6-6--6--6--|
G------------------|x2
D------------------|
A------------------|
E------------------|

e-9----9----9--10--|
B--7-7--7-7--7---7-|
G------------------|x2
D------------------|
A------------------|
E------------------|

e-8----8----8--9---|
B--6-6--6-6--6--6--|
G------------------|x2
D------------------|
A------------------|
E------------------|

e-7----7----7--8---|
B--5-5--5-5--5--5--|
G------------------|x2
D------------------|
A------------------|
E------------------|

e-6----6----6--7---|
B--4-4--4-4--4--4--|
G------------------|x2
D------------------|
A------------------|
E------------------|

e-7----7----7--8---|
B--5-5--5-5--5--5--|
G------------------|x2
D------------------|
A------------------|
E------------------|

e-6----6----6--7---|
B--4-4--4-4--4--4--|
G------------------|x2
D------------------|
A------------------|
E------------------|

e-2----2----2--3---|
B--0-0--0-0--0--0--|
G------------------|x9
D------------------|
A------------------|
E------------------|

e-9----9----9--10--|
B--7-7--7-7--7---7-|
G------------------|x6
D------------------|
A------------------|
E------------------|

e-8----8----8--9---|
B--6-6--6-6--6--6--|
G------------------|x2
D------------------|
A------------------|
E------------------|

e-9----9----9--10--|
B--7-7--7-7--7---7-|
G------------------|x2
D------------------|
A------------------|
E------------------|

e-8----8----8--9---|
B--6-6--6-6--6--6--|
G------------------|x2
D------------------|
A------------------|
E------------------|

e-7----7----7--8---|
B--5-5--5-5--5--5--|
G------------------|x2
D------------------|
A------------------|
E------------------|

e-6----6----6--7---|
B--4-4--4-4--4--4--|
G------------------|x2
D------------------|
A------------------|
E------------------|

e-7----7----7--8---|
B--5-5--5-5--5--5--|
G------------------|x2
D------------------|
A------------------|
E------------------|

e-6----6----6--7---|
B--4-4--4-4--4--4--|
G------------------|x2
D------------------|
A------------------|
E------------------|

e-2----2----2--3---|
B--0-0--0-0--0--0--|
G------------------|x5
D------------------|
A------------------|
E------------------|

e-9----9----9--10--|
B--7-7--7-7--7---7-|
G------------------| "Repeat many times"
D------------------|
A------------------|
E------------------|

0 reply
skuzckok 10 Sep 19, 2016 05:29 PM

What about the keyboard part?

guest
You may want to rate the tab now too:
select rating
Wanna post a correction for this tab? Suggest correction