Oops, an error
Loading. Please wait.

Featherless Redheads Tab

4 views 4 this week
no commentswrite comment
1 2 3 4 5
3 more votes to show rating
add to favorites
launch autoscroll
font size
0
reset
how to read this tab
guitar tuner
Autoscroll
slow
fast
+/-
esc
set tempo
stop
Help us to improve Ultimate-Guitar.com Take our survey!
×
Author
Difficulty
Tuning
intermediate
D A D G B E
About this tab version
Since there's no tab for this song yet. Was this info helpful? Yes No
[Intro]
e|--------------------|
B|--------------------|
G|---2----------------|
D|---2---2---4--------| (x4)
A|---0---2---4--------|
D|-------2---4--------|

e|-----------------------|
B|-----------------------|
G|---2-------------------|
D|---2-------------------|
A|---0---4p2p0-----------|
D|---------------3---4---|

e|-----------------------|
B|-----------------------|
G|-----------------------|
D|-----------------------| (x3)
A|---4p2p0---------------|
D|-----------3---4-------|

[Verse]
(0:25)
e|---------------|
B|---------------|
G|---2-----------|
D|---2---2---4---| (x4)
A|---0---2---4---|
D|-------2---4---|

e|---------------|
B|---------------|
G|---------------|
D|---0~---0~-----|
A|---0~---0~-----|
D|---0~---0~-----|

[Pre-chorus]
(0:43)
e|---------------------------------------------------------------------------|
B|---------------------------------------------------------------------------|
G|---------------------------------------------------------------------------|
D|---------------------------------------------------------------------------|
A|---4p2p0------------4p2p0-----------4p2p0-----------4p2p0------------------|
D|-----------3---4------------3---4-----------3---4-----------3---4----------|

e|---------------------------------------------------------------------------|
B|---------------------------------------------------------------------------|
G|---2-----------------------------------------------------------------------|
D|---2---2-------------------------------------------------------------------|
A|---0---2-----------4p2p0-----------4p2p0-----------4p2p0-------------------|
D|-------2---3---4-----------3---4-----------3---4-----------3---4-----------|

e|-------------------|
B|-------------------|
G|---2---------------|
D|---2---2---4-------| (x2)
A|---0---2---4-------|
D|-------2---4-------|

[Chorus] 
(1:05)
e|--------------------------------------|
B|--------------------------------------|
G|--------------------------------------|
D|---0---2---4--------------------------| (x2)
A|---0---2---4--------------------------|
D|---0---2---4--------------------------|

e|---------------------------------------------------------------------------|
B|---------------------------------------------------------------------------|
G|---------------2---4-------------------------------------------------------|
D|---0---2---4---2---4---0---2---4-------------------------------------------|
A|---0---2---4---0---0---0---2---4-------------------------------------------|
D|---0---2---4-----------0---2---4-------------------------------------------|

[Verse]
(0:25)
e|---------------|
B|---------------|
G|---2-----------|
D|---2---2---4---| (x4)
A|---0---2---4---|
D|-------2---4---|

e|---------------|
B|---------------|
G|---------------|
D|---0~---0~-----|
A|---0~---0~-----|
D|---0~---0~-----|

[Chorus] 
(1:05)
e|--------------------------------------|
B|--------------------------------------|
G|--------------------------------------|
D|---0---2---4--------------------------| (x2)
A|---0---2---4--------------------------|
D|---0---2---4--------------------------|

e|---------------------------------------------------------------------------|
B|---------------------------------------------------------------------------|
G|---------------2---4-------------------------------------------------------|
D|---0---2---4---2---4---0---2---4-------------------------------------------|
A|---0---2---4---0---0---0---2---4-------------------------------------------|
D|---0---2---4-----------0---2---4-------------------------------------------|

[Bridge] 
(1:56)
e|------------------------------------|--------------------------------------|
B|------------------------------------|--------------------------------------|
G|------------------------------------|--------------------------------------|
D|------------------------------------|--------------------------------------|
A|------------------------------------|--------------------------------------|
D|---7---7---6---4---3---4---6---3b---|---7---7---6---4---3---4--------------|

e|---------------------------------------------------------------------------|
B|---------------------------------------------------------------------------|
G|---------------------------------------------------------------------------|
D|---------------------------------------------------------------------------|
A|---4p2p0------------4p2p0-----------4p2p0-----------4p2p0-----------3*-----|
D|-----------3---4------------3---4-----------3---4-----------3---4----------|

e|---------------------------------------------------------------------------|
B|---------------------------------------------------------------------------|
G|---------------------------------------------------------------------------|
D|---------------------------------------------------------------------------|
A|---4p2p0------------4p2p0-----------4p2p0----------------------------------|
D|-----------3---4------------3---4-----------3---4--------------------------|

(Guitar 1)
e|----------------------------------|
B|----------------------------------|
G|---------------------------2------|
D|---2---4---2---4---2---4---2------|
A|---2---4---2---4---2---4---0------|
D|---2---4---2---4---2---4----------|

(Guitar 2)
e|-------------------------------------|
B|-------------------------------------|
G|-------------------------------------|
D|-------------------------------------| (x3)
A|---------------------------14--------|
D|---14h16---14h16---14h16-------------|

e|--------------------------------|
B|--------------------------------|
G|--------------------------------|
D|--------------------------------|
A|--------------------------------|
D|---14h16---14h16---14h16--------|

[Chorus] 
(1:05)
e|--------------------------------------|
B|--------------------------------------|
G|--------------------------------------|
D|---0---2---4--------------------------| (x2)
A|---0---2---4--------------------------|
D|---0---2---4--------------------------|

e|---------------------------------------------------------------------------|
B|---------------------------------------------------------------------------|
G|---------------2---4-------------------------------------------------------|
D|---0---2---4---2---4---0---2---4-------------------------------------------|
A|---0---2---4---0---0---0---2---4-------------------------------------------|
D|---0---2---4-----------0---2---4-------------------------------------------|

[Outro]
e|-------------------------------|-------------------------------|----------------------------------|
B|-------------------------------|-------------------------------|----------------------------------|
G|-------------------------------|-------------------------------|----------------------------------|
D|-------------------------------|-------------------------------|----------------------------------|
A|-------------------------------|-------------------------------|----------------------------------|
D|---7---7---6---4---3---4---6---|---7---7---6---4---3---4---6---|---7---7---6---4---3---4---6------|

e|-------------------|
B|-------------------|
G|-------------------|
D|---4---4-----------|
A|---4---4-----------|
D|---4---4-----------|


************************************

| p  Pull-off
| ~  Vibrato
| b  Bend
| *  Natural harmonic
| h  Hammer-on

************************************
Suggest correction
Give kudos to tab author, rate the tab!
1 2 3 4 5
comments
print report bad tab
guest
You may want to rate the tab now too:
select rating
Wanna post a correction for this tab? Suggest correction