Oops, an error
Loading. Please wait.

Hurts So Good Chords

version 1
version 1

Whole song

Interactive

314,102 views 537 this week
5 commentsread comments
1 2 3 4 5
x 81
add to favorites
launch autoscroll
font size
0
reset
transpose
0
reset
simplify chords
display chords
guitar tuner
Autoscroll
slow
fast
+/-
esc
set tempo
stop
Help us to improve Ultimate-Guitar.com Take our survey!
×
[Intro]

As the names of some of the chords are too long, I've used the following
code:
        Chord           Code
        --------------------
        A(no 3rd)        A1
        Asus2                 A2
        A6(no 3rd)       A3


[Intro]

     A1  A2    A     A3   A1              A1 A2    A      A3  A
e|--------------------------------------------------------------------------|
B|-------3-3-3-2-----------------------------3-3-3-2------------------------|
G|---2---4-4-4-2------2---2-----------2---2--4-4-4-2------2---2----------2--|
D|---2---2-2-2-2------4---2----2--2-4-----2--3-3-3-2------4---2---2--2-4----|
A|---0---------0---0--0---0---------------0--------0---0--0---0-------------|
E|--------------------------------------------------------------------------|


[VERSE I]

A                 E       F#m                     D
 When I was a young boy,       said put away those young boy ways
A                     E                   F#m                 D
 Now that I'm gettin' older, so much older   I love all those young boy days.
A                     E   A                   E
 With a girl like you,     with a girl like you,
F#m                          D                  E
   Lord knows there are things we can do, baby,    just me and you.

Come on and make it . . .


[CHORUS]

A            E    A                      E
  hurt so good.    Come on baby, make it hurt so good.
D         F#m        D                                   E
Sometimes love don't feel like it should.  You make it . . . hurt so good.


[Instrumental]

     A1  A2    A     A3   A1              A1 A2    A      A3  A
e|--------------------------------------------------------------------------|
B|-------3-3-3-2-----------------------------3-3-3-2------------------------|
G|---2---4-4-4-2------2---2-----------2---2--4-4-4-2------2---2----------2--|
D|---2---2-2-2-2------4---2----2--2-4-----2--3-3-3-2------4---2---2--2-4----|
A|---0---------0---0--0---0---------------0--------0---0--0---0-------------|
E|--------------------------------------------------------------------------|



[VERSE II]  (same chord pattern as Verse I)

Don't have to be so exiting.
Just tryin' to give myself a little bit of fun, yeah.
You always look so invitin'   you ain't as green as  you  are  young
Hey baby, its you.    Come on, girl, now, its you.
Sink your teeth right through my bones, baby.
Let's see what we can do.  Come on and make it . . .


[CHORUS]

A            E    A                      E
  hurt so good.    Come on baby, make it hurt so good.
D         F#m        D                                   E
Sometimes love don't feel like it should.  You make it . . . hurt so good.


[Bridge]

D                   A           D                F#m     A
 I ain't talkin' no big deals;   I ain't made no plans myself.
D                                               E
 I ain't talkin' no high heels; Maybe we could   walk around   all day long,


walk around all day long.


[Outro] (fade out)

     A1  A2    A     A3   A1              A1 A2    A      A3  A
e|--------------------------------------------------------------------------|
B|-------3-3-3-2-----------------------------3-3-3-2------------------------|
G|---2---4-4-4-2------2---2-----------2---2--4-4-4-2------2---2----------2--|
D|---2---2-2-2-2------4---2----2--2-4-----2--3-3-3-2------4---2---2--2-4----|
A|---0---------0---0--0---0---------------0--------0---0--0---0-------------|
E|--------------------------------------------------------------------------|


============================================================================

CHORDS:

A(no 3rd)  x 0 2 2 x x
Asus4sus2  x 0 2 4 3 x
A6(no 3rd) x 0 4 2 x x
E          0 2 2 1 0 0
D          x x 0 2 3 2
F#m        2 4 4 2 2 2
Suggest correction
comments
print report bad tab
5 comments total. Showing first comments.
-1 reply
shelbycj 16 Dec 24, 2005 03:08 PM

pretty good so learn to play guitar play guitar

0 reply
jarretto 10 Aug 04, 2008 03:40 AM

sounds good. even though i only played the intro.

great riff

0 reply
Bravodoggie 20 Aug 01, 2009 12:09 PM

good job on tab

guest
You may want to rate the tab now too:
select rating
Wanna post a correction for this tab? Suggest correction