Oops, an error
Loading. Please wait.

I Need A Lover bass

version 1
version 1

Whole song

Interactive

887 views 1 this week
4 commentsread comments
1 2 3 4 5
x 4
add to favorites
×
Save as Personal and add changes to this tab that will be seen only by you. Learn more ›
×
You can save this tab as Personal to edit and correct it or add notes. All changes will be seen only by you. Learn more »
launch autoscroll
font size
0
reset
guitar tuner
edit
Autoscroll
slow
fast
+/-
esc
set tempo
stop
-----------------------------------------------------------------------------
                                   Artist - John Cougar Mellencamp
                                  *********************************
                                        Song - I Need A Lover 
                                       ***********************
                                     Album - John Cougar (1979)   
                                    ****************************
                                        Tabbed By - Ayreon77
                                       **********************
-----------------------------------------------------------------------------
Tuning = Standard


INTRO
******
    s     h      h     h     h     h   s
G|-4\11--9-11-|-9-11--9-11--9-11--9-11-\-|---------------------------|
D|------------|--------------------------|------------------h--------|
A|------------|--------------------------|----4-----4-3-2--2-4-4-2-0-|
E|------------|--------------------------|-2-----2-------------------|


G|---------------------------|---------------------------|------------|-----|---------|
D|------------------h--------|------------------h--------|------------|-4-3-|-----s-s-|
A|----4-----4-3-2--2-4-4-----|----4-----4-3-2--2-4-4-----|----4-----4-|-----|-6-4-\9/-|
E|-2-----2---------------0-1-|-2-----2---------------0-1-|-2-----2----|-----|---------|


------------------
CHORUS
*******
G|------------------|--------------------|--------------------|--------------------|
D|------------------|--------------------|--------------------|--------------------|
A|----4-4--2-2--4-4-|------4-4--2-2--4-4-|------4-4--2-2--4-4-|------4-4--2-2--4-4-|
E|-2----------------|-2-2----------------|-2-2----------------|-2-2----------------|


G|---------------------------------|-------------------------|
D|------------------------h--------|-------------------------|
A|--h-s-----4-----4-3-2--2-4-4-----|----4-----4-3-2--4-4-----|
E|-0-1\--2-----2---------------0-1-|-2-----2-------------0-1-|


------------------
VERSE 1
********
G|------------------|-------------------------|------------------|--------------------|
D|------------------|-------------------------|------------------|--------------------|
A|----4-4--2-2--4-4-|------4-4--2-2--4-4------|----4-4--2-2--4-4-|------4-4--2-2--4-4-|
E|-2----------------|-2-2-----------------0-1-|-2----------------|-2-2----------------|


G|---------------------------------|----------------------------|
D|-----------------------h---------|------------------h---------|
A|---------4-----4-3-2--2-4-4------|----4-----4-3-2--2-4-4------|
E|-0-1--2-----2----------------0-1-|-2-----2----------------0-1-|


------------------
BRIDGE
*******
G|------------------|-------------------------|------------------|-------------------|
D|------------------|-------------------------|------------------|-------------------|
A|----4-4--2-2--4-4-|------4-4--2-2--4-4------|----4-4--2-2--4-4-|------4-4--2-2-2-2-|
E|-2----------------|-2-2-----------------0-1-|-2----------------|-2-2---------------|


G|-----------------|
D|-----------------|
A|-4-4-4-4-4-4-4-4-|
E|-----------------|


------------------
CHORUS
*******
G|---------------------------|---------------------------|
D|------------------h--------|------------------h--------|
A|----4-----4-3-2--2-4-4-----|----4-----4-3-2--2-4-4-----|
E|-2-----2---------------0-1-|-2-----2---------------0-1-|


G|-------------------------------------------------------|
D|------------------h--------|------------------h--------|
A|----4-----4-3-2--2-4-4-----|----4-----4-3-2--2-4-4-----|
E|-2-----2---------------0-1-|-2-----2---------------0-1-|
  

------------------
SOLO 1
*******
G|---------------------------|---------------------------|---------------------------|
D|------------------h--------|------------------h--------|------------------h--------|
A|----4-----4-3-2--2-4-4-----|----4-----4-3-2--2-4-4-----|----4-----4-3-2--2-4-4-----|
E|-2-----2---------------0-1-|-2-----2---------------0-1-|-2-----2---------------0-1-|


G|------------|-----|---------|
D|------------|-4-3-|-----s-s-|
A|----4-----4-|-----|-6-4-\9/-|
E|-2-----2----|-----|---------|


------------------
BRIDGE
*******
G|------------------|-------------------------|------------------|-------------------|
D|------------------|-------------------------|------------------|-------------------|
A|----4-4--2-2--4-4-|------4-4--2-2--4-4------|----4-4--2-2--4-4-|------4-4--2-2-2-2-|
E|-2----------------|-2-2-----------------0-1-|-2----------------|-2-2---------------|


G|-----------------|
D|-----------------|
A|-4-4-4-4-4-4-4-4-|
E|-----------------|


------------------
CHORUS - No Bass

------------------
SOLO 2 - Key Change
*******
     s
G|-12\-----------------------------|---------------------------|
D|------------------------h--------|------------------h--------|
A|----------7-----7-6-5--5-7-7-----|----7-----7-6-5--5-7-7-----|
E|-------5-----5---------------3-4-|-5-----5---------------3-4-|


G|---------------------------|---------------------------|
D|------------------h--------|------------------h--------|
A|----7-----7-6-5--5-7-7-----|----7-----7-6-5--5-7-7-----|
E|-5-----5---------------3-4-|-5-----5---------------3-4-|


------------------
CHORUS
*******
G|---------------------------|---------------------------|
D|------------------h--------|------------------h--------|
A|----7-----7-6-5--5-7-7-----|----7-----7-6-5--5-7-7-----|
E|-5-----5---------------3-4-|-5-----5---------------3-4-|


G|-----------------------|---------------------------|
D|-----------------------|------------------h--------|
A|----7-----7--5-5-5-5-7-|----7-----7-6-5--5-7-7-----|
E|-5-----5---------------|-5-----5---------------3-4-|


------------------
SOLO 3
*******
G|---------------------------|---------------------------|
D|------------------h--------|------------------h--------|
A|----7-----7-6-5--5-7-7-----|----7-----7-6-5--5-7-7-----|
E|-5-----5---------------3-4-|-5-----5---------------3-4-|


G|---------------------------|----------------|-----|-----|-----|
D|------------------h--------|----------------|-7-6-|-----|-----|
A|----7-----7-6-5--5-7-7-----|----7-----7-6-5-|-----|-9-7-|-----|
E|-5-----5---------------3-4-|-5-----5--------|-----|-----|-6-5-|


ENJOY.........

            
            
Suggest correction
Creating personal tab
Creating personal tab
You can edit any tab online and save it as your Personal.

You can edit, replace or remove any tab part or add personal notes – all changes will be seen only by you.

Personal tabs can be accessed anytime from any device, even offline.
Learn more »
comments
print report bad tab
4 comments total. Showing first comments.
0 reply
mattedbird 20 Jun 20, 2015 08:20 AM, edited at 12:22 pm

I wondered how many tab request got tended to but you have answered that question. Thank you much.

0 reply
ayreon77 21,833 Jun 20, 2015 08:29 AM

glad you liked it, rate it for me as well thx.

0 reply
mattedbird 20 Jun 20, 2015 08:44 AM, edited at 12:56 pm

Took me a minute. Looks excellent.

guest
You may want to rate the tab now too:
select rating
Wanna post a correction for this tab? Suggest correction