Oops, an error
Loading. Please wait.

I Need A Lover Tab

version 1
version 1

Whole song

Interactive

23,608 views 6 this week
1 commentread comment
1 2 3 4 5
x 4
add to favorites
launch autoscroll
font size
0
reset
how to read this tab
guitar tuner
Autoscroll
slow
fast
+/-
esc
set tempo
stop
Help us to improve Ultimate-Guitar.com Take our survey!
×
-------------------------------------------------------------------------------
                             I NEED A LOVER - John Cougar Mellencamp
-------------------------------------------------------------------------------
Tabbed by: Nate Dude

Lots of key changes in this one. There is a variation of the main riff played throughout 
intro in a couple of different keys before the song eventually settles on F# when the 
kick in. It's a great melodic riff with a memorable hook and was Mellencamp's 
first big hit. Enjoy!

Tuning: Standard

Main Riff (2:14)

Chords: F#  C#  B  C#

e|--4h6-4~------------------------4h6-4~----7-6-7-9~------------4h6-4~-------|
B|------------7-6-4---------4-6h7-------------------------4-6h7--------------|
G|------------------6~----6-----------------------------6--------------------|
D|---------------------------------------------------------------------------|
A|---------------------------------------------------------------------------|
E|---------------------------------------------------------------------------|

Cool Riff at the End (5:04)

Chords: A  E  D  E

e|--12h14-12~----------------------------------------------------------------|
B|---------------15-14h15p14p12-----------12-14h15---------------------------|
G|---------------------------------------------------------------------------|
D|------------------------------14~----14------------------------------------|
A|---------------------------------------------------------------------------|
E|---------------------------------------------------------------------------|

e|--12h14-12~-------------------12~------------------------------------------|
B|---------------15-14-15-14-15-----------12-14h15---------------------------|
G|---------------------------------------------------------------------------|
D|-------------------------------------14------------------------------------|
A|---------------------------------------------------------------------------|
E|---------------------------------------------------------------------------|

e|--12h14-12~--------------------------------------12h14-12~-----------------|
B|---------------15-14h15p14p12-----------12-14h15---------------------------|
G|---------------------------------------------------------------------------|
D|------------------------------14~----14------------------------------------|
A|---------------------------------------------------------------------------|
E|---------------------------------------------------------------------------|

That's all I have for now!

| /  slide up
| \  slide down
| h  hammer-on
| p  pull-off
| ~  vibrato
| +  harmonic
| x  Mute note
===============================================================================
Suggest correction
comments
print report bad tab
1 comment total.
0 reply
JS5150 20 Feb 11, 2009 03:14 PM

You should tab the solo at 4:33. please.

guest
You may want to rate the tab now too:
select rating
Wanna post a correction for this tab? Suggest correction