Oops, an error
Loading. Please wait.

Just Another Day tab

5,483 views 3 this week
no commentswrite comment
1 2 3 4 5
3 more votes to show rating
add to favorites
×
Save as Personal and add changes to this tab that will be seen only by you. Learn more ›
×
You can save this tab as Personal to edit and correct it or add notes. All changes will be seen only by you. Learn more »
launch autoscroll
font size
0
reset
how to read this tab
guitar tuner
edit
Autoscroll
slow
fast
+/-
esc
set tempo
stop
Author
Difficulty
Intro: (x2)
|--7--7---5----------------------------------7--7---5-------------------------------------------------|
|---------------8--6----6p5h6p5------------------------8--6~------------------------------------------|
|--------------------------------------7--------------------------------------------------------------|
|--------------------------------------------------------------------------------3--------------------|
|-----------------------------------------------------------------------3-h5---------5\---------------|
|------------------------------------------------------------------------------------------(3~)-------|


|--7--7---5-------------------------------------------------------------------------------------------|
|---------------8--6----6p5h6p5---------6p5h6p5--6-------8~-------------------------------------------|
|----------------------------------7-----------------7------------------------------------------------|
|-----------------------------------------------------------------------------------------------------|
|-----------------------------------------------------------------------------------------------------|
|-----------------------------------------------------------------------------------------------------|


(optional bass line to play behind the intro)
|------------------------------------------------------------|
|------------------------------------------------------------|
|------------------------------------------------------------|
|--------------3--------3-----------------3------------------|
|---------5--------5-------------3-h5------------------------|
|--3h5-------------------------------------------------------|


End on
|--3~------------|
|--3~------------|
|--0~------------|
|----------------|
|----------------|
|----------------|

Verse 1:

First half is no guitar, then
|------------------------------------------------------------------------------------------------------------------|
|------------------------------------------------------------------------------------------------------------------|
|------------------------------------------------------------------------------------------------------------------|
|--------------3--------3--------5-----------3-------------------3-------3--------5-----------3--------------------|
|---------5---------5----------------3-h5-------------------5--------5----------------3-h5--------5----------------|
|--3h5------------------------------------------------3h5------------------------------------------------3~--------|


Gtr 1. (x4)
|-----------------------------------------------------|
|-----------------------------------------------------|
|-----------------------------------------------------|
|--------------3--------3-----------------3-----------|
|---------5--------5-------------3-h5-----------------|
|--3h5------------------------------------------------|


Gtr 2.
|--3----3--3--------3----3--3--------3----3--3--------|
|--3----3--3--------3----3--3--------3----3--3--------|
|--0----0--0--------0----0--0--------0----0--0--------|
|-----------------------------------------------------|
|-----------------------------------------------------|
|-----------------------------------------------------|


Chorus:
|--0--0-------3---3--3------0---0--0------0---0--0--0------------------|
|--3--3-------3---3--3------3---3--3------3---3--3--3------------------|
|--0--0-------0---0--0------2---2--2------2---2--2--2------------------| (x2)
|--2--2-------2---2--2------0---0--0------0---0--0--0------------------|
|--2--2-------3---3--3-------------------------------------------------|
|--0--0----------------------------------------------------------------|
    E           C             D             D


|--0--0----0--0--0--0-----------3--3----3--3--3--3--------0--0----0--0--0--0--------3~----------|
|--3--3----3--3--3--3-----------3--3----3--3--3--3--------3--3----3--3--3--3--------3~----------|
|--0--0----0--0--0--0-----------0--0----0--0--0--0--------2--2----2--2--2--2--------0~----------|
|--2--2----2--2--2--2-----------2--2----2--2--2--2--------0--0----0--0--0--0--------0~----------|
|--2--2----2--2--2--2-----------3--3----3--3--3--3----------------------------------2~----------|
|--0--0----0--0--0--0---------------------------------------------------------------3~----------|
    E                            C                          D

Pre-Verse:
|--7--7---5----------------------------------7--7---5-------------------------------------------------|
|---------------8--6----6p5h6p5------------------------8--6~------------------------------------------|
|--------------------------------------7--------------------------------------------------------------|
|--------------------------------------------------------------------------------3--------------------|
|-----------------------------------------------------------------------3-h5---------5\---------------|
|------------------------------------------------------------------------------------------(3~)-------|


|--7--7---5-------------------------------------------------------------------------------------------|
|---------------8--6----6p5h6p5---------6p5h6p5--6-------8~-------------------------------------------|
|----------------------------------7-----------------7------------------------------------------------|
|-----------------------------------------------------------------------------------------------------|
|-----------------------------------------------------------------------------------------------------|
|-----------------------------------------------------------------------------------------------------|

Verse 2:
Gtr 1. (x4)
|-----------------------------------------------------|
|-----------------------------------------------------|
|-----------------------------------------------------|
|--------------3--------3-----------------3-----------|
|---------5--------5-------------3-h5-----------------|
|--3h5------------------------------------------------|


Gtr 2.
|--3----3--3--------3----3--3--------3----3--3--------|
|--3----3--3--------3----3--3--------3----3--3--------|
|--0----0--0--------0----0--0--------0----0--0--------|
|-----------------------------------------------------|
|-----------------------------------------------------|
|-----------------------------------------------------|

Chorus:
|--0--0-------3---3--3------0---0--0------0---0--0--0------------------|
|--3--3-------3---3--3------3---3--3------3---3--3--3------------------|
|--0--0-------0---0--0------2---2--2------2---2--2--2------------------| (x2)
|--2--2-------2---2--2------0---0--0------0---0--0--0------------------|
|--2--2-------3---3--3-------------------------------------------------|
|--0--0----------------------------------------------------------------|
    E           C             D             D


At the end of the second go round, hit this
Gtr2.
|--0------------------------------|
|------3--------------------------|
|---------2--2--0-----------------|
|--------------------2--0~--------|
|---------------------------------|
|---------------------------------|


|--0--0----0--0--0--0-----------3--3----3--3--3--3--------0--0----0--0--0--0--------3~----------|
|--3--3----3--3--3--3-----------3--3----3--3--3--3--------3--3----3--3--3--3--------3~----------|
|--0--0----0--0--0--0-----------0--0----0--0--0--0--------2--2----2--2--2--2--------0~----------|
|--2--2----2--2--2--2-----------2--2----2--2--2--2--------0--0----0--0--0--0--------0~----------|
|--2--2----2--2--2--2-----------3--3----3--3--3--3----------------------------------2~----------|
|--0--0----0--0--0--0---------------------------------------------------------------3~----------|
    E                            C                          D

Solo:
|--7--7----5--5----8~--------7--7----5--5----8--8----5-5\3------------|
|---------------------------------------------------------------------|
|---------------------------------------------------------------------|
|---------------------------------------------------------------------|
|---------------------------------------------------------------------|
|---------------------------------------------------------------------|


|----------------------------------------------------------------------------------------------|
|------8-----10------8------10------8-------------8-----10------8------10--12--10--8-----------|
|--/7-----7-------7------7-------7------------/7-----7-------7------7--------------------------|
|----------------------------------------------------------------------------------------------|
|----------------------------------------------------------------------------------------------|
|----------------------------------------------------------------------------------------------|


|----------------------------------------------------------------------------------------------|
|--12\10--10-------------------------------------12\10--10-------------------------------------|
|----------------12------7/9---9\7--9/12----------------------12------9--7---9\7~--------------|
|----------------------------------------------------------------------------------------------|
|----------------------------------------------------------------------------------------------|
|----------------------------------------------------------------------------------------------|


Verse 3:

No guitar, then
|--3----3--3--------3----3--3--------3----3--3--------|
|--3----3--3--------3----3--3--------3----3--3--------|
|--0----0--0--------0----0--0--------0----0--0--------|
|-----------------------------------------------------|
|-----------------------------------------------------|
|-----------------------------------------------------|


End on
|--3--3-3-3-3-3-3--3---------------|
|--3--3-3-3-3-3-3--3---------------|
|--0--0-0-0-0-0-0--0---------------|
|--0--0-0-0-0-0-0--0---------------|
|--2--2-2-2-2-2-2--2---------------|
|--3--3-3-3-3-3-3--3---------------|
   G

Chorus:
|--0--0-------3---3--3------0---0--0------0---0--0--0------------------|
|--3--3-------3---3--3------3---3--3------3---3--3--3------------------|
|--0--0-------0---0--0------2---2--2------2---2--2--2------------------| (x2)
|--2--2-------2---2--2------0---0--0------0---0--0--0------------------|
|--2--2-------3---3--3-------------------------------------------------|
|--0--0----------------------------------------------------------------|
    E           C             D             D


|--0--0----0--0--0--0-----------3--3----3--3--3--3--------0--0----0--0--0--0--------3~----------|
|--3--3----3--3--3--3-----------3--3----3--3--3--3--------3--3----3--3--3--3--------3~----------|
|--0--0----0--0--0--0-----------0--0----0--0--0--0--------2--2----2--2--2--2--------0~----------|
|--2--2----2--2--2--2-----------2--2----2--2--2--2--------0--0----0--0--0--0--------0~----------|
|--2--2----2--2--2--2-----------3--3----3--3--3--3----------------------------------2~----------|
|--0--0----0--0--0--0---------------------------------------------------------------3~----------|
    E                            C                          D


|--0--0-------3---3--3------0---0--0------0---0--0--0------------------|
|--3--3-------3---3--3------3---3--3------3---3--3--3------------------|
|--0--0-------0---0--0------2---2--2------2---2--2--2------------------| (x2)
|--2--2-------2---2--2------0---0--0------0---0--0--0------------------|
|--2--2-------3---3--3-------------------------------------------------|
|--0--0----------------------------------------------------------------|
    E           C             D             D


Grt 2.
|----------------------------------------------------------------------|
|------8-----10------8------10~-----------8-----10------8----12--10~---|
|--/7-----7-------7------7-------------/7-----7-------7----------------|
|----------------------------------------------------------------------|
|----------------------------------------------------------------------|
|----------------------------------------------------------------------|


|--0--0----0--0--0--0-----------3--3----3--3--3--3--------0--0----0--0--0--0--------3~----------|
|--3--3----3--3--3--3-----------3--3----3--3--3--3--------3--3----3--3--3--3--------3~----------|
|--0--0----0--0--0--0-----------0--0----0--0--0--0--------2--2----2--2--2--2--------0~----------|
|--2--2----2--2--2--2-----------2--2----2--2--2--2--------0--0----0--0--0--0--------0~----------|
|--2--2----2--2--2--2-----------3--3----3--3--3--3----------------------------------2~----------|
|--0--0----0--0--0--0---------------------------------------------------------------3~----------|
    E                            C                          D


|------------------------------------------------------------------------|
|------8-----10------8------10------8-------10~--------------------------|
|--/7-----7-------7------7-------7-------7-------------------------------|
|------------------------------------------------------------------------|
|------------------------------------------------------------------------|
|------------------------------------------------------------------------|

Outro: (x2)
|--7--7---5----------------------------------7--7---5-------------------------------------------------|
|---------------8--6----6p5h6p5------------------------8--6~------------------------------------------|
|--------------------------------------7--------------------------------------------------------------|
|--------------------------------------------------------------------------------3--------------------|
|-----------------------------------------------------------------------3-h5---------5\---------------|
|------------------------------------------------------------------------------------------(3~)-------|


|--7--7---5-------------------------------------------------------------------------------------------|
|---------------8--6----6p5h6p5---------6p5h6p5--6-------8~-------------------------------------------|
|----------------------------------7-----------------7------------------------------------------------|
|-----------------------------------------------------------------------------------------------------|
|-----------------------------------------------------------------------------------------------------|
|-----------------------------------------------------------------------------------------------------|


(optional bass line to play behind the outro)
|------------------------------------------------------------|
|------------------------------------------------------------|
|------------------------------------------------------------|
|--------------3--------3-----------------3------------------|
|---------5--------5-------------3-h5------------------------|
|--3h5-------------------------------------------------------|


End on
|--3~------------|
|--3~------------|
|--0~------------|
|----------------|
|----------------|
|----------------|

            
            
Suggest correction
Creating personal tab
Creating personal tab
You can edit any tab online and save it as your Personal.

You can edit, replace or remove any tab part or add personal notes – all changes will be seen only by you.

Personal tabs can be accessed anytime from any device, even offline.
Learn more »
Give kudos to tab author, rate the tab!
1 2 3 4 5
comments
print report bad tab
guest
You may want to rate the tab now too:
select rating
Wanna post a correction for this tab? Suggest correction