Oops, an error
Loading. Please wait.

Little Pink Houses chords

version 4
version 4

Whole song

406 views 6 this week
no commentswrite comment
1 2 3 4 5
1 last vote to show rating
add to favorites
×
Save as Personal and add changes to this tab that will be seen only by you. Learn more ›
×
You can save this tab as Personal to edit and correct it or add notes. All changes will be seen only by you. Learn more »
launch autoscroll
font size
0
reset
transpose
0
reset
display chords
guitar tuner
edit
Autoscroll
slow
fast
+/-
esc
set tempo
stop
Author
Difficulty
About this tab version
This song is easy to play for a beginner and the Riffs can be used throughout the song and chorus. Use palm mute to establish the rhythm. Was this info helpful? Yes No
Strumming
There is no strumming pattern for this song yet. and get +5 IQ
(These two Riffs are played in the song.)

(Riff 1)

e|--------3-PM---PM--3-----------3-PM---PM--3-------|
B|-------------1----------------------1-------------|
G|----0----------------------0----------------------|
D|-------------2----------------------2-------------|
A|--------2----3-----2-----------2----3-----2-------|
E|3/7--h3-3----------3---3/7--h3-3----------3-------|

(Riff 2)

e|-1-----p3-1-----------------0--------3--PM--3--3---|
B|-1--1-------1------0--h1------1--------------------|
G|-2------------2----0-----0------2------------------|
D|-3--------------3--2--------------0----------------|
A|-------------------3-----------------2------2--2---|
E|-------------------------------------3------3--3---|

***********************************************************************
[Intro]

e|--------3-PM---PM--3-----------3-PM---PM--3-------|
B|-------------1----------------------1-------------|
G|----0----------------------0----------------------|
D|-------------2----------------------2-------------|
A|--------2----3-----2-----------2----3-----2-------|
E|3/7--h3-3----------3---3/7--h3-3----------3-------|

e|-1-----p3-1-----------------0--------3--PM--3--3---|
B|-1--1-------1------0--h1------1--------------------|
G|-2------------2----0-----0------2------------------|
D|-3--------------3--2--------------0----------------|
A|-------------------3-----------------2------2--2---|
E|-------------------------------------3------3--3---|

[Verse 1]
G          
There's a black man with a black cat, livin in a black neighborhood
G
He's got an interstate runnin through his front yard
G           F           C         G
You know, he thinks, he's got it so good
G
There's a woman in his kitchen, cleanin up evenin slop
G       F                      C                                         G
and he looks at her and says "hey darlin',I can remember when you could,stop a clock
 

[Chorus]
G                    C                 G
Oh but, aint that America, for you and me
G             C                       G
Aint that America, we're something to see, baby
G             C                D
Aint that America, home of the free, yeah
D                       C
Little pink houses, for you and me

e|--------3-PM---PM--3-----------3-PM---PM--3-------|
B|-------------1----------------------1-------------|
G|----0----------------------0----------------------|
D|-------------2----------------------2-------------|
A|--------2----3-----2-----------2----3-----2-------|
E|3/7--h3-3----------3---3/7--h3-3----------3-------|


[Verse 2]
G          
Well there's a young man in a T-shirt, listenin to a rock and roll station
G
He's got greasy hair, and a greasy smile
G           F           C           G
He says, Lord this must be my destination
G
Cause they told me, when I was younger, sayin "boy your gonna be president"
G             F                          C                                  G
But just like everything else, those old crazy dreams, just kinda, came and went


[Chorus]
G                    C                 G
Oh but, aint that America, for you and me
G             C                       G
Aint that America, we're something to see, baby
G             C                D
Aint that America, home of the free, yeah
D                       C
Little pink houses, for you and me

e|--------3-PM---PM--3-----------3-PM---PM--3-------|
B|-------------1----------------------1-------------|
G|----0----------------------0----------------------|
D|-------------2----------------------2-------------|
A|--------2----3-----2-----------2----3-----2-------|
E|3/7--h3-3----------3---3/7--h3-3----------3-------|

e|--------3-PM---PM--3-----------3-PM---PM--3-------|
B|-------------1----------------------1-------------|
G|----0----------------------0----------------------|
D|-------------2----------------------2-------------|
A|--------2----3-----2-----------2----3-----2-------|
E|3/7--h3-3----------3---3/7--h3-3----------3-------|

e|-1-----p3-1-----------------0--------3--PM--3--3---|
B|-1--1-------1------0--h1------1--------------------|
G|-2------------2----0-----0------2------------------|
D|-3--------------3--2--------------0----------------|
A|-------------------3-----------------2------2--2---|
E|-------------------------------------3------3--3---|

[Verse 3]
G
Well there's people and more people, What do they know, know, know
G
Go to work in some high rise
G              F         C         G 
And vacation down at the Gulf of Mexico, Ooo yeah
G
And there's winners, and there's losers, But they ain't no big deal
G          F                        C                          G
Cause the simple man baby pays the thrills, The bills and the pills that kill


[Chorus]
G                C                 G
Oh, aint that America, for you and me
G             C                       G
Aint that America, we're something to see, baby
G             C                D
Aint that America, home of the free, yeah
D                       C
Little pink houses, for you and me


[Chorus]
G            C                 G
Aint that America, for you and me
G             C                       G
Aint that America, we're something to see, baby
G             C                D
Aint that America, home of the free,
D                       C
Little pink houses, for you and me

e|--------3-PM---PM--3-----------3-PM---PM--3-------|
B|-------------1----------------------1-------------|
G|----0----------------------0----------------------|
D|-------------2----------------------2-------------|
A|--------2----3-----2-----------2----3-----2-------|
E|3/7--h3-3----------3---3/7--h3-3----------3-------|

Suggest correction
Creating personal tab
Creating personal tab
You can edit any tab online and save it as your Personal.

You can edit, replace or remove any tab part or add personal notes – all changes will be seen only by you.

Personal tabs can be accessed anytime from any device, even offline.
Learn more »
Give kudos to tab author, rate the tab!
1 2 3 4 5
comments
print report bad tab
guest
You may want to rate the tab now too:
select rating
Wanna post a correction for this tab? Suggest correction