Oops, an error
Loading. Please wait.

Annies Song tab

version 3
version 3

Whole song

Interactive

17,416 views 12 this week
4 commentsread comments
1 2 3 4 5
x 9
add to favorites
×
Save as Personal and add changes to this tab that will be seen only by you. Learn more ›
×
You can save this tab as Personal to edit and correct it or add notes. All changes will be seen only by you. Learn more »
launch autoscroll
font size
0
reset
how to read this tab
guitar tuner
backing track
0:00
0:00
edit
Autoscroll
slow
fast
+/-
esc
set tempo
stop
Author
Title: Annies Song
Artist: John Denver
Tabbed by: Jan Kristoffer Vega


This is my version, its more easy and fun tunes...
ako ra ni himo2 kay walay lingaw.. nya lingaw kaau ni bisan "sad song" ang kanta....

    ---== Love and Peace ==---

1st verse:
e|-----5-6-5-3-6--5----2-3-5-7-5-3-1------------------------------|
B|----------------------------------------------------------------|
G|----------------------------------------------------------------|
D|----------------------------------------------------------------|
A|----------------------------------------------------------------|
E|----------------------------------------------------------------|


e|-----5-6-8-10-8-11--10----7-8-10-12-10—-14----------------------|
B|----------------------------------------------------------------|
G|----------------------------------------------------------------|
D|----------------------------------------------------------------|
A|----------------------------------------------------------------|
E|----------------------------------------------------------------|


e|-----3-6-5-3-2-6--5----2-3-5-7-5-3-1----------------------------|
B|----------------------------------------------------------------|
G|----------------------------------------------------------------|
D|----------------------------------------------------------------|
A|----------------------------------------------------------------|
E|----------------------------------------------------------------|


e|-----3-6-5-3-6--5----6-8-9-11-9---------------------------------|
B|----------------------------------------------------------------|
G|----------------------------------------------------------------|
D|----------------------------------------------------------------|
A|----------------------------------------------------------------|
E|----------------------------------------------------------------|

2nd verse:
e|-----5-6-5-3-6--5---2-3-5-7-5-3-1---------------------------------|
B|----------------------------------------------------------------|
G|----------------------------------------------------------------|
D|----------------------------------------------------------------|
A|----------------------------------------------------------------|
E|----------------------------------------------------------------|


e|-----5-6-8-10-8-11--10----7-8-10-12-10--14----------------------|
B|----------------------------------------------------------------|
G|----------------------------------------------------------------|
D|----------------------------------------------------------------|
A|----------------------------------------------------------------|
E|----------------------------------------------------------------|


e|-----3-6-5-3-2-6--5----2-3-5-7-5-3-1----------------------------|
B|----------------------------------------------------------------|
G|----------------------------------------------------------------|
D|----------------------------------------------------------------|
A|----------------------------------------------------------------|
E|----------------------------------------------------------------|

e|-----5-6-5-3-6--5---6-8-9-11-9----------------------------------|
B|----------------------------------------------------------------|
G|----------------------------------------------------------------|
D|----------------------------------------------------------------|
A|----------------------------------------------------------------|
E|----------------------------------------------------------------|

                       (repeat 1st verse)

for comments and sugestions 
email @ TrijaN_16@yahoo.com
Have Fun and GOD bless
Suggest correction
Creating personal tab
Creating personal tab
You can edit any tab online and save it as your Personal.

You can edit, replace or remove any tab part or add personal notes – all changes will be seen only by you.

Personal tabs can be accessed anytime from any device, even offline.
Learn more »
comments
print report bad tab
4 comments total. Showing first comments.
0 reply
vdude 30 Dec 06, 2006 08:52 AM

what is this supposed to be?

0 reply
Amitabdeb 10 Aug 25, 2007 05:49 PM

Rubbish

0 reply
concluey 30 Apr 11, 2009 12:50 AM

ahhahaha.......
bai lain man kau kay wlay bass..

lagting kau ang tingog..
butngig bass bai..

guest
You may want to rate the tab now too:
select rating
Wanna post a correction for this tab? Suggest correction