Oops, an error
Loading. Please wait.

Country Roads Bass Tab

version 1
version 1

Whole song

  • I think it's the complete song. It should match th... Show more

Interactive

367 views 3 this week
no commentswrite comment
1 2 3 4 5
3 more votes to show rating
add to favorites
launch autoscroll
font size
0
reset
guitar tuner
Autoscroll
slow
fast
+/-
esc
set tempo
stop
Help us to improve Ultimate-Guitar.com Take our survey!
×
Author
About this tab version
I think it's the complete song. It should match the album version. This is a version for novices. Was this info helpful? Yes No
Rest for 2 bars

  Verse   Al  most heaven                   WestVirg   ia
G|----------------|----------------|----------------|----------------|
D|0-------0-------|----------------|----------------|--------0-------|
A|----------------|2-------2-------|0-------0-------|----------------|
E|----------------|----------------|----------------|3---------------|

          BlueRidg Mountains        Shen    do       Riv   er
G|----------------|----------------|----------------|----------------|
D|0-------0-------|0---------------|----------------|----------------|
A|----------------|--------2-------|2-------0-------|0---------------|
E|----------------|----------------|----------------|--------3-------|

                           Lifeis   old there        old     than     
G|----------------|----------------|----------------|----------------|
D|0-------0-------|0---------------|----------------|----------------|
A|----------------|--------0-------|0-------2-------|2---------------|
E|----------------|----------------|----------------|--------3-------|

  tree             younger than     moun  tains      growin  likeaBreeze
G|----------------|----------------|----------------|----------------|
D|--------0-------|0---------------|----------------|--------0-------|
A|----------------|--------0-------|0---------------|----------------|
E|3---------------|----------------|--------3-------|3---------------|

  Chorus  Country  Roads  
G|----------------|----------------|----------------|----------------|
D|0-------0-------|0---------------|----------------|----------------|
A|----------------|--------2-------|2-------0-------|0---------------|
E|----------------|----------------|----------------|--------3-------|

G|----------------|----------------|----------------|----------------|
D|0-------0-------|0-------0-------|----------------|----------------|
A|----------------|----------------|2-------2-------|0-------0-------|
E|----------------|----------------|----------------|----------------|

G|----------------|----------------|----------------|----------------|
D|----------------|----------------|----------------|----------------|
A|----------------|0-------0-------|2-------2-------|----------------|
E|3-------3-------|----------------|----------------|3-------3-------|

G|----------------|----------------|----------------|----------------|
D|0-------0-------|----------------|----------------|0-------0-------|
A|----------------|0-------0-------|----------------|----------------|
E|----------------|----------------|3-------3-------|----------------|

G|----------------|
D|----------------|
A|2-------0-------|
E|----------------|
  
  Verse
G|----------------|----------------|----------------|----------------|
D|0-------0-------|----------------|----------------|--------0-------|
A|----------------|2-------2-------|0-------0-------|----------------|
E|----------------|----------------|----------------|3---------------|

G|----------------|----------------|----------------|----------------|
D|0-------0-------|0---------------|----------------|----------------|
A|----------------|--------2-------|2-------0-------|0---------------|
E|----------------|----------------|----------------|--------3-------|

G|----------------|----------------|----------------|----------------|
D|0-------0-------|0---------------|----------------|----------------|
A|----------------|--------0-------|0-------2-------|2---------------|
E|----------------|----------------|----------------|--------3-------|

G|----------------|----------------|----------------|----------------|
D|--------0-------|0---------------|----------------|--------0-------|
A|----------------|--------0-------|0---------------|----------------|
E|3---------------|----------------|--------3-------|3---------------|

  Chorus  Country  Roads 
G|----------------|----------------|----------------|----------------|
D|0-------0-------|0---------------|----------------|----------------|
A|----------------|--------2-------|2-------0-------|0---------------|
E|----------------|----------------|----------------|--------3-------|

G|----------------|----------------|----------------|----------------|
D|0-------0-------|0-------0-------|----------------|----------------|
A|----------------|----------------|2-------2-------|0-------0-------|
E|----------------|----------------|----------------|----------------|

G|----------------|----------------|----------------|----------------|
D|----------------|----------------|----------------|----------------|
A|----------------|0-------0-------|2-------2-------|----------------|
E|3-------3-------|----------------|----------------|3-------3-------|

G|----------------|----------------|----------------|----------------|
D|0-------0-------|----------------|----------------|0-------0-------|
A|----------------|0-------0-------|----------------|----------------|
E|----------------|----------------|3-------3-------|----------------|

G|----------------|
D|----------------|
A|2-------0-------|
E|----------------|

  Bridge
G|----------------|----------------|----------------|----------------|
D|----------------|--------0-------|----------------|----------------|
A|2-------3-------|----------------|0-------0-------|0-------0-------|
E|----------------|3---------------|----------------|----------------|

G|----------------|----------------|----------------|----------------|
D|0-------0-------|----------------|----------------|----------------|
A|----------------|0-------0-------|2-------2-------|----------------|
E|----------------|----------------|----------------|3-------3-------|

G|----------------|----------------|----------------|----------------|
D|0-------0-------|----------------|----------------|0-------0-------|
A|----------------|0-------0-------|----------------|----------------|
E|----------------|----------------|3-------3-------|----------------|

G|----------------|----------------|----------------|
D|0-------0-------|----------------|----------------|
A|----------------|0-------0-------|2-------2-------|
E|----------------|----------------|----------------|

  Chorus  Country  Roads  
G|----------------|----------------|----------------|----------------|
D|0-------0-------|0---------------|----------------|----------------|
A|----------------|--------2-------|2-------0-------|0---------------|
E|----------------|----------------|----------------|--------3-------|

G|----------------|----------------|----------------|----------------|
D|0-------0-------|0-------0-------|----------------|----------------|
A|----------------|----------------|2-------2-------|0-------0-------|
E|----------------|----------------|----------------|----------------|

G|----------------|----------------|----------------|----------------|
D|----------------|----------------|----------------|----------------|
A|----------------|0-------0-------|2-------2-------|----------------|
E|3-------3-------|----------------|----------------|3-------3-------|

G|----------------|----------------|----------------|----------------|
D|0-------0-------|----------------|----------------|0-------0-------|
A|----------------|0-------0-------|----------------|----------------|
E|----------------|----------------|3-------3-------|----------------|

  Chorus  Country  Roads  
G|----------------|----------------|----------------|----------------|
D|0-------0-------|0---------------|----------------|----------------|
A|----------------|--------2-------|2-------0-------|0---------------|
E|----------------|----------------|----------------|--------3-------|

G|----------------|----------------|----------------|----------------|
D|0-------0-------|0-------0-------|----------------|----------------|
A|----------------|----------------|2-------2-------|0-------0-------|
E|----------------|----------------|----------------|----------------|

G|----------------|----------------|----------------|----------------|
D|----------------|----------------|----------------|----------------|
A|----------------|0-------0-------|2-------2-------|----------------|
E|3-------3-------|----------------|----------------|3-------3-------|

G|----------------|----------------|----------------|----------------|
D|0-------0-------|----------------|----------------|0-------0-------|
A|----------------|0-------0-------|----------------|----------------|
E|----------------|----------------|3-------3-------|----------------|

G|----------------|----------------|----------------|----------------|
D|----------------|----------------|----------------|----------------|
A|----------------|0-------0-------|2-------2-------|----------------|
E|3-------3-------|----------------|----------------|3-------3-------|

G|----------------|----------------|----------------|----------------|
D|0-------0-------|----------------|----------------|0-------0-------|
A|----------------|0-------0-------|----------------|----------------|
E|----------------|----------------|3-------3-------|----------------|

G|----------------|----------------|
D|0-------0-------|----------------|
A|----------------|----------------|
E|----------------|----------------|

Comments on the transition out of the Bridge and the ending are
appreciated. If you find the song challenging, Count 1, 2, 1, 2.
---------------------------------------------------------------------

Suggest correction
Give kudos to tab author, rate the tab!
1 2 3 4 5
comments
print report bad tab
guest
You may want to rate the tab now too:
select rating
Wanna post a correction for this tab? Suggest correction