Oops, an error
Loading. Please wait.

Follow Me Bass Tab

version 1
version 1

Whole song

  • I think this is the first one submitted.

Interactive

4 views 1 this week
no commentswrite comment
1 2 3 4 5
3 more votes to show rating
add to favorites
launch autoscroll
font size
0
reset
guitar tuner
Autoscroll
slow
fast
+/-
esc
set tempo
stop
Help us to improve Ultimate-Guitar.com Take our survey!
×
Author
Difficulty
novice
About this tab version
I think this is the first one submitted. Was this info helpful? Yes No
Rest for 2 bars
  far     hard         I've      done 
G|----------------|----------------|----------------|----------------|
D|----------------|----------------|0-------0-------|0-------0-------|
A|2-------2-------|0-------0-------|----------------|----------------|
E|----------------|----------------|----------------|----------------|
                              
                                                             Follow
G|----------------|----------------|----------------|----------------|
D|----------------|----------------|----------------|----------------|
A|----------------|----------------|0-------0-------|0-------0-------|
E|3-------2-------|0-------0-------|----------------|----------------|

G|----------------|----------------|----------------|0---------------|
D|0---------------|2-------0-------|0---------------|--------0-------|
A|--------0-------|----------------|--------0-------|----------------|
E|----------------|----------------|----------------|----------------|

G|----------------|----------------|----------------|----------------|
D|0---------------|2-------0-------|----------------|----------------|
A|--------0-------|----------------|0---------------|0---------------|
E|----------------|----------------|--------0-------|--------0-------|

G|----------------|----------------|----------------|0---------------|
D|0---------------|2-------0-------|0---------------|--------0-------|
A|--------0-------|----------------|--------0-------|----------------|
E|----------------|----------------|----------------|----------------|

G|----------------|----------------|----------------|----------------|
D|0---------------|----------------|0---------------|0---------------|
A|--------0-------|--------0-------|--------0-------|--------0-------|
E|----------------|3---------------|----------------|----------------|

G|----------------|----------------|0-------0-------|----------------|
D|0-------0-------|----------------|----------------|0-------0-------|
A|----------------|0-------0-------|----------------|----------------|
E|----------------|----------------|----------------|----------------|

G|----------------|----------------|----------------|----------------|
D|----------------|----------------|----------------|----------------|
A|2-------2-------|0-------0-------|----------------|0-------0-------|
E|----------------|----------------|3-------3-------|----------------|

G|0-------0-------|----------------|0-------0-------|----------------|
D|----------------|0-------0-------|----------------|0-------0-------|
A|----------------|----------------|----------------|----------------|
E|----------------|----------------|----------------|----------------|

G|0---------------|----------------|0-------0-------|----------------|
D|--------4-------|2-------0-------|----------------|----------------|
A|----------------|----------------|----------------|0-------0-------|
E|----------------|----------------|----------------|----------------|

          Follow
G|----------------|
D|----------------|
A|0-------0-------|
E|----------------|

G|----------------|----------------|----------------|0---------------|
D|0---------------|2-------0-------|0---------------|--------0-------|
A|--------0-------|----------------|--------0-------|----------------|
E|----------------|----------------|----------------|----------------|

G|----------------|----------------|----------------|----------------|
D|0---------------|2-------0-------|----------------|----------------|
A|--------0-------|----------------|0---------------|0---------------|
E|----------------|----------------|--------0-------|--------0-------|

G|----------------|----------------|----------------|0---------------|
D|0---------------|2-------0-------|0---------------|--------0-------|
A|--------0-------|----------------|--------0-------|----------------|
E|----------------|----------------|----------------|----------------|

G|----------------|----------------|----------------|----------------|
D|0---------------|----------------|0---------------|0---------------|
A|--------0-------|--------0-------|--------0-------|--------0-------|
E|----------------|3---------------|----------------|----------------|

G|----------------|----------------|0-------0-------|----------------|
D|0-------0-------|----------------|----------------|0-------0-------|
A|----------------|0-------0-------|----------------|----------------|
E|----------------|----------------|----------------|----------------|

G|----------------|----------------|----------------|----------------|
D|----------------|----------------|----------------|----------------|
A|2-------2-------|0-------0-------|----------------|0-------0-------|
E|----------------|----------------|3-------3-------|----------------|

G|0-------0-------|----------------|0-------0-------|----------------|
D|----------------|0-------0-------|----------------|0-------0-------|
A|----------------|----------------|----------------|----------------|
E|----------------|----------------|----------------|----------------|

G|0---------------|----------------|0-------0-------|----------------|
D|--------4-------|2-------0-------|----------------|----------------|
A|----------------|----------------|----------------|0-------0-------|
E|----------------|----------------|----------------|----------------|

          Follow
G|----------------|
D|----------------|
A|0-------0-------|
E|----------------|

G|----------------|----------------|----------------|0---------------|
D|0---------------|2-------0-------|0---------------|--------0-------|
A|--------0-------|----------------|--------0-------|----------------|
E|----------------|----------------|----------------|----------------|

G|----------------|----------------|----------------|----------------|
D|0---------------|2-------0-------|----------------|----------------|
A|--------0-------|----------------|0---------------|0---------------|
E|----------------|----------------|--------0-------|--------0-------|

G|----------------|----------------|----------------|0---------------|
D|0---------------|2-------0-------|0---------------|--------0-------|
A|--------0-------|----------------|--------0-------|----------------|
E|----------------|----------------|----------------|----------------|

G|----------------|----------------|----------------|----------------|
D|0---------------|----------------|0---------------|0---------------|
A|--------0-------|--------0-------|--------0-------|----------------|
E|----------------|3---------------|----------------|----------------|

Novice version. Comments on the last 2 bars appreciated. 

Suggest correction
Give kudos to tab author, rate the tab!
1 2 3 4 5
comments
print report bad tab
guest
You may want to rate the tab now too:
select rating
Wanna post a correction for this tab? Suggest correction