Oops, an error
Loading. Please wait.
We have Chord Pro version of Rocky Mountain High.
It's the closest thing you can get to the original song and it has interactive parts. Check out the tab »
×
253 views 3 this week
no commentswrite comment
1 2 3 4 5
3 more votes to show rating
add to favorites
×
Save as Personal and add changes to this tab that will be seen only by you. Learn more ›
×
You can save this tab as Personal to edit and correct it or add notes. All changes will be seen only by you. Learn more »
launch autoscroll
font size
0
reset
guitar tuner
edit
Autoscroll
slow
fast
+/-
esc
set tempo
stop
Author
----------------------------------------------------------------------
                    Rocky Mountain High - John Denver
----------------------------------------------------------------------
Tabbed by: RagnaarMN
Tuning: Standard
Key of E Major

G|----------------|----------------|----------------|----------------|
D|----------------|----------------|------2-4-------|----------------|
A|----------------|----------------|----4-----------|0-------2-------|
E|0---------------|0---------------|----------------|----------------|

G|----------------|----------------|----------------|----------------|
D|----------------|----------------|------2-4-------|----------------|
A|----------------|----------------|----4-----------|0-------2-------|
E|0---------------|0---------------|----------------|----------------|

  Verse
G|----------------|----------------|----------------|----------------|
D|2-------2-----2-|2-------2-----2-|4-------4-------|0---------------|
A|------2---------|------2---------|------4---------|--------2-------|
E|----------------|----------------|----------------|----------------|

G|----------------|----------------|----------------|----------------|
D|2-------2-----2-|2-------2-----2-|4-----4-4-------|----------------|
A|------2---------|------2---------|----------------|0-------2-------|
E|----------------|----------------|----------------|----------------|

G|----------------|----------------|----------------|----------------|
D|2-------2-----2-|2-------2-----2-|4-------4-------|0---------------|
A|------2---------|------2---------|------4---------|--------2-------|
E|----------------|----------------|----------------|----------------|

G|----------------|----------------|----------------|----------------|
D|2-------2-----2-|2-------2-----2-|4-------4-------|----------------|
A|------2---------|------2---------|------4---------|0-------2-------|
E|----------------|----------------|----------------|----------------|

G|----------------|----------------|----------------|----------------|
D|----------------|----------------|----------------|0---------------|
A|----------------|----------------|------4---------|--------2-------|
E|0-------0-------|0-------0-------|2-------2-------|----------------|

G|----------------|----------------|----------------|----------------|
D|----------------|----------------|----------------|----------------|
A|----------------|----------------|------4---------|0-------2-------|
E|0-------0-------|0-------0-------|2-------2-----2-|----------------|

G|----------------|----------------|----------------|----------------|
D|----------------|----------------|----------------|0---------------|
A|----------------|----------------|------4---------|--------2-------|
E|0-------0-------|0-------0-------|2-------2-----2-|----------------|

G|----------------|----------------|----------------|----------------|
D|----------------|----------------|----------------|----------------|
A|----------------|----------------|------4---------|0-------2-------|
E|0-------0-------|0-------0-------|2-------2-----2-|----------------|

  Chorus
G|----------------|----------------|----------------|----------------|
D|----------------|----------------|----------------|----------------|
A|0-------0-------|2-------2-------|----------------|----------------|
E|----------------|----------------|0-------0-------|0-------0-------|

G|----------------|----------------|----------------|----------------|
D|----------------|----------------|----------------|----------------|
A|0-------0-------|2-------2-------|----------------|----------------|
E|----------------|----------------|0-------0-------|0-------0-------|

G|----------------|----------------|----------------|----------------|
D|----------------|----------------|----------------|----------------|
A|0-------0-------|2-------2-------|----------------|0-----0-------0-|
E|----------------|----------------|0-------2---4---|----------------|

G|----------------|----------------|----------------|
D|----------------|----------------|----------------|
A|--0-----0-----0-|0---0-0---0-0---|0---0---0---0---|
E|----------------|----------------|----------------|

G|----------------|----------------|----------------|----------------|
D|----------------|----------------|----------------|----------------|
A|----------------|----------------|------4---------|0-----0-2-------|
E|0-------0-------|0-------0-------|2-------2-----2-|----------------|

G|----------------|----------------|----------------|----------------|
D|----------------|----------------|------4---------|----------------|
A|----------------|----------------|2-------2-----2-|0-----0-2-------|
E|0-------0-------|0-------0-------|----------------|----------------|

  Verse
G|----------------|----------------|----------------|----------------|
D|2-------2-----2-|2-------2-----2-|4-------4-------|0---------------|
A|------2---------|------2---------|------4---------|--------2-------|
E|----------------|----------------|----------------|----------------|

G|----------------|----------------|----------------|----------------|
D|2-------2-----2-|2-------2-----2-|4-----4-4-------|----------------|
A|------2---------|------2---------|----------------|0-------2-------|
E|----------------|----------------|----------------|----------------|

G|----------------|----------------|----------------|----------------|
D|2-------2-----2-|2-------2-----2-|4-------4-------|0---------------|
A|------2---------|------2---------|------4---------|--------2-------|
E|----------------|----------------|----------------|----------------|

G|----------------|----------------|----------------|----------------|
D|2-------2-----2-|2-------2-----2-|4-------4-------|----------------|
A|------2---------|------2---------|------4---------|0-------2-------|
E|----------------|----------------|----------------|----------------|

G|----------------|----------------|----------------|----------------|
D|----------------|----------------|----------------|0---------------|
A|----------------|----------------|------4---------|--------2-------|
E|0-------0-------|0-------0-------|2-------2-------|----------------|

G|----------------|----------------|----------------|----------------|
D|----------------|----------------|----------------|----------------|
A|----------------|----------------|------4---------|0-------2-------|
E|0-------0-------|0-------0-------|2-------2-----2-|----------------|

G|----------------|----------------|----------------|----------------|
D|----------------|----------------|----------------|0---------------|
A|----------------|----------------|------4---------|--------2-------|
E|0-------0-------|0-------0-------|2-------2-----2-|----------------|

G|----------------|----------------|----------------|----------------|
D|----------------|----------------|----------------|----------------|
A|----------------|----------------|------4---------|0-------2-------|
E|0-------0-------|0-------0-------|2-------2-----2-|----------------|

  Chorus
G|----------------|----------------|----------------|----------------|
D|----------------|----------------|----------------|----------------|
A|0-------0-------|2-------2-------|----------------|----------------|
E|----------------|----------------|0-------0-------|0-------0-------|

G|----------------|----------------|----------------|----------------|
D|----------------|----------------|----------------|----------------|
A|0-------0-------|2-------2-------|----------------|----------------|
E|----------------|----------------|0-------0-------|0-------0-------|

G|----------------|----------------|----------------|----------------|
D|----------------|----------------|----------------|----------------|
A|0-------0-------|2-------2-------|----------------|0-----0-----0---|
E|----------------|----------------|0-------2---4---|----------------|

G|----------------|----------------|----------------|
D|----------------|----------------|----------------|
A|--0-----0-----0-|0---0-0---0-0---|0---0---0---0---|
E|----------------|----------------|----------------|

G|----------------|----------------|----------------|----------------|
D|----------------|----------------|----------------|----------------|
A|----------------|----------------|------4---------|0-----0-2-------|
E|0-------0-------|0-------0-------|2-------2-----2-|----------------|

G|----------------|----------------|----------------|----------------|
D|----------------|----------------|----------------|----------------|
A|----------------|----------------|------4---------|0-----0-2-------|
E|0-------0-------|0-------0-------|2-------2-----2-|----------------|

  Verse
G|----------------|----------------|----------------|----------------|
D|----------------|----------------|----------------|0---------------|
A|----------------|----------------|------4---------|--------2-------|
E|0-------0-------|0-------0-------|2-------2-----2-|----------------|

G|----------------|----------------|----------------|----------------|
D|----------------|----------------|----------------|----------------|
A|----------------|----------------|2-------2-----2-|0-------2-------|
E|0-------0-------|0-------0-------|------0---------|----------------|

G|----------------|----------------|----------------|----------------|
D|----------------|----------------|----------------|0---------------|
A|----------------|----------------|------4---------|--------2-------|
E|0-------0-----0-|0-------0-------|2-------2-----2-|----------------|

G|----------------|----------------|----------------|----------------|
D|----------------|----------------|----------------|----------------|
A|----------------|----------------|------4---------|0-------2-------|
E|0-------0-------|0-------0-------|2-------2-----2-|----------------|

  Chorus
G|----------------|----------------|----------------|----------------|
D|----------------|----------------|----------------|----------------|
A|0-------0-------|2-------2-------|----------------|----------------|
E|----------------|----------------|0-------0-------|0-------0-------|

G|----------------|----------------|----------------|----------------|
D|----------------|----------------|----------------|----------------|
A|0-------0-------|2-------2-------|----------------|----------------|
E|----------------|----------------|0-------0-------|0-------0-------|

G|----------------|----------------|----------------|----------------|
D|----------------|----------------|----------------|----------------|
A|0-------0-------|2-------2-------|----------------|0-----0-------0-|
E|----------------|----------------|0-------2---4---|----------------|

G|----------------|----------------|----------------|
D|----------------|----------------|----------------|
A|--0-----0-----0-|0---0-0---0-0---|0---0---0---0---|
E|----------------|----------------|----------------|

G|----------------|----------------|----------------|----------------|
D|----------------|----------------|----------------|----------------|
A|----------------|----------------|0-------0-------|2-------2-------|
E|0-------0-------|0-------0-------|----------------|----------------|

G|----------------|----------------|----------------|----------------|
D|----------------|----------------|----------------|----------------|
A|----------------|----------------|0-------0-------|2-------2-------|
E|0-------0-------|0-------0-------|----------------|----------------|

G|----------------|----------------|----------------|----------------|
D|----------------|----------------|----------------|----------------|
A|----------------|----------------|0-------0-------|2-------2-------|
E|0-------0-------|0-------0-------|----------------|----------------|

G|----------------|----------------|----------------|----------------|
D|----------------|----------------|----------------|----------------|
A|----------------|0-----0-------0-|----0---0-----0-|0---0-0---0-0---|
E|0-----2-----4---|----------------|----------------|----------------|

G|----------------|
D|----------------|
A|0---0---0---0---|
E|----------------|

G|----------------|----------------|----------------|----------------|
D|----------------|----------------|----------------|----------------|
A|----------------|----------------|------4---------|0-----0-0-------|
E|0-------0-------|0-------0-------|2-------2-----2-|----------------|

G|----------------|----------------|----------------|----------------|
D|----------------|----------------|----------------|----------------|
A|----------------|----------------|------4---------|0-----0-0-------|
E|0-------0-------|0-------0-------|2-------2-----2-|----------------|

Keep repeating the above 4 bars

The middle of the chorus may be difficult. Counting helps.
"Now he walks in quiet solitude, the forest and the streams, 
seeking grace in every step he takes." Credit to Morton. 
---------------------------------------------------------------------
Suggest correction
Creating personal tab
Creating personal tab
You can edit any tab online and save it as your Personal.

You can edit, replace or remove any tab part or add personal notes – all changes will be seen only by you.

Personal tabs can be accessed anytime from any device, even offline.
Learn more »
Give kudos to tab author, rate the tab!
1 2 3 4 5
comments
print report bad tab
guest
You may want to rate the tab now too:
select rating
Wanna post a correction for this tab? Suggest correction