Oops, an error
Loading. Please wait.

Come Again Tab

version 1
version 1

Whole song

Interactive

5,182 views 12 this week
1 commentread comment
1 2 3 4 5
please rate
add to favorites
launch autoscroll
font size
0
reset
how to read this tab
guitar tuner
Autoscroll
slow
fast
+/-
esc
set tempo
stop
Help us to improve Ultimate-Guitar.com Take our survey!
×
Author
Come again - John Dowland
Transcribed for Classic Guitar by Thomas Schenkman, Long Island NY

6th string = D

         |       |       |        |       |       |       |
|------------------------2---3---|5-----------------------5-------|
|------------------------3-------|7-----------------------7-------|
|------------------------2-------|--------------------------------|
|------------------------0-------|0-------------------------------|
|--------------------------------|--------------------------------|
|--------------------------------|----------------0---------------|

 |       |       |       |        |       |       |       |
|7-------5-------3-----------3---|2-----------------------5-------|
|8-------3-------3---2-0-2-3---2-|3-------------------------------|
|--------------------------------|2-------------------------------|
|5---------------2---------------|0-------------------------------|
|--------------------------------|--------------------------------|
|--------------------------------|----------------0---------------|

 |       |       |       |        |       |       |       |
|5-------3-----------2---0-------|0-----2-0---------------0-------|
|3-------0-----------3---0---3---|2---------3-2-0---------2-------|
|------------------------0-------|2---------------2-------2-------|
|0-------2-----------------------|--------------------------------|
|--------------------------------|----0-------------------0-------|
|--------------------------------|--------------------------------|

 |       |       |       |        |       |
|2---------------0-----2-0-------|0---------------|
|3-------3-------0---------3-2-0-|2---------------|
|2-------0-----------------------|2---------------|
|0---------------2---------------|----------------|
|--------2-----------------------|0---------------|
|--------------------2-----------|----------------|

 |       |       |       |        |       |       |       |
|------------------------0-------|--------2---------------3-------|
|--------3-----------0-----------|----2---------------3-----------|
|----2---------------------------|--------------------------------|
|--------------------------------|--------------------------------|
|--------------------------------|0---------------2---------------|
|4---------------5---------------|--------------------------------|

 |       |       |       |        |       |       |       |
|----0---5-----------------------|5-------3---2---0-----------5---|
|--------------------------------|3---------------2-------3-------|
|--------------------------------|----------------2---------------|
|----------------0---------------|0-------2-------2---------------|
|4-------------------------------|----------------0-------2-------|
|------------------------0-------|4-------5-----------------------|

 |       |       |       |        |       |
|3---2---2---0---0---------------|----------------|
|--------------3-3---2-0-2-3-0-2-|3---------------|
|--------------------------------|----------------|
|--------------------------------|0---------------|
|--------2-------0---------------|----------------|
|5-------------------------------|0---------------|

 |       |       |       |        |       |       |       |
|----------------------------0---|----------0-2-----------0-2-3---|
|--------0-2-3-------0---2-3-----|----2---3-----------3-----------|
|----2---------------------------|--------------------------------|
|--------------------------------|--------------------------------|
|--------------------------------|0---------------2---------------|
|4---------------5---------------|--------------------------------|

 |       |       |       |        |       |       |       |
|----0---2-3-5-------------------|----5---3-2-0---0-----------5---|
|--------------------------------|3-------------3-2-------3-------|
|--------------------------------|----------------2---------------|
|----------------0---------------|0-------------------------------|
|4-------------------------------|----------------0-------2-------|
|------------------------0-------|0-------5-----------------------|

 |       |       |       |        |       |       |       |
|3---2-----2-0-------------------|------------------------2---3---|
|--------------3---3-2-0-2-3-3-0-|3-----------------------3-------|
|--------------------------------|2-----------------------2-------|
|--------------------------------|0-----------------------0-------|
|--------2-------0---------------|--------------------------------|
|5-------------------------------|----------------0---------------|

 |       |       |       |        |       |       |       |
|--------------------------------|------------0-------------0-2---|
|--------0-2-3-2-0-------0-2-3-0-|2-0---0-2-3---2-3-2-0-2-3-----3-|
|----2-------------2-0-2---------|----2---------------------------|
|--------------------------------|--------------------------------|
|--------------------------------|0---------------2---------------|
|4---------------5---------------|--------------------------------|

 |       |       |       |        |       |       |       |
|0-------0-2-3-0-5---------------|----5---3-2-0---0-----------5---|
|--3-2-3-------------------------|3-------------3-2-------3-------|
|--------------------------------|----------------2---------------|
|----------------0---------------|0-------------------------------|
|4-------------------------------|----------------0-------2-------|
|------------------------0-------|0-------5-----------------------|

 |       |       |       |        |       |       |       |
|3---2-----2-0-------------------|-------------------------------||
|--------------3---3-2-0-2-3-3-0-|3------------------------------||
|--------------------------------|2------------------------------||
|--------------------------------|0------------------------------||
|--------2-------0---------------|-------------------------------||
|5-------------------------------|----------------0--------------||
Suggest correction
What's this?
You can suggest a correction to this tab. Community and Mods will review your correction and vote to approve or reject it.
comments
We did not receive enough feedback on this tab! Please rate:
print report bad tab
1 2 3 4 5
1 comment total.
0 reply
VioletaSm 25 wrote on April 21 2014, 03:55 pm

What do you mean by 6th string? And the "I sit, I sigh" part on fourth fret top string, is that correct? Do you have a video of you playing this?

guest
You may want to rate the tab now too:
select rating
Please do not post tabs as comments. Select "correction" instead!