Oops, an error
Loading. Please wait.

Melancholy Galliard Tab

version 2
version 2

Whole song

Interactive

675 views 6 this week
no commentswrite comment
1 2 3 4 5
please rate
add to favorites
launch autoscroll
font size
0
reset
how to read this tab
guitar tuner
Tab Pro tools
  • play this tab
  • loop segment
  • change instrument
  • show fretboard
  • metronome
×
Best way to learn
"Melancholy Galliard"
Autoscroll
slow
fast
+/-
esc
set tempo
stop
Contributor
Title: Melancholy Galliard
Composer: John Dowland (1563-1626)
Arranged by: Thomas Kцnigs (b.1956)
Tab by: Raul M.H. Bonde (b.1980) 
Time: 3/4  Standard Tuning

Rhythm:

  w = whole note            W = dotted whole
  h = half note             H = dotted half
  q = quarter note          Q = dotted quarter
  e = eighth note           E = dotted eighth
  s = sixteenth note        S = dotted sixteenth 
  r = eight rest            R = quarter rest
 RR = Half Rest             . = dotted rest (when placed after r,R,RR)

********************************************************************************

                           Q
                           E                               CIII..............
                           h                                     Q  
1                          h                                     E
  R.       e  e  e   q     h   s q  e   Q        e  e  e   q     h   s q  e
  |  .  |  .  |  .   |  .  |  .  |  .   |  .  |  .  |  .   |  .  |  .  |  . 
e|---------------0--|1-----0========0--|---------0--1--3--|5-----3========3--|
B|R.-------2--3-----|3-----3---3-2=====|3--------R.-------|------r.--6-5-----|
G|------------------|2-----2===========|2--------R.-------|5-----------------|
D|------------------|0-----2===========|0--------R.-------|3-----5===========|
A|------------------|------0===========|------------------|------3===========|
E|------------------|------------------|------------------|------------------|


 CI                 CV    CV           CIII..............       Q
                          q                        q            E
5                         e            Q           e      e     h 
 Q        e  e  e   q     q  e  q      h        e  q      q  e  h    sq  e
 |  .  |  .  |  .   |  .  |  .  |  .   |  .  |  .  |  .   |  .  |  .  |  . 
|1--------3--5--6--|8-----6=====5-----|3--------5--3-----|1--3--0========0--|
|1--------R.-------|5--------5--6-----|5===========5==5--|3-----3----32=====|
|2--------R.-------|------7-----------|5-----------------|------2===========|
|------------------|7-----5=====------|------------------|0-----------------|
|------------------|------------8-----|3-----------3-----|------0===========|
|1--------R.-------|5-----------------|------------------|------------------|


                           Q
                           e
 CII                       h                                CIII..............      
9q                         h                                      Q
 Q     e  e  s s s s q     h  ss q  e   Q        e  s s s s q     h  ss q  e
 |  .  |  .  |  .    |  .  |  .  |  .   |  .  |  .  |  .    |  .  |  .  |  . 
|------------------0|1-----0========0--|---------0--1-0-1-3|5-----3--------3--|
|3-----3--2--3-2-3--|3-----3--20-2-----|3========----------|------r--53-5-----|
|2-----2------------|2-----2===========|2========----------|5-----------------|
|4-----4------------|0-----2===========|0========----------|3-----5===========|
|5========R.--------|------0===========|-------------------|------3===========|
|-------------------|------------------|-------------------|------------------|


                     CV................ CIII................       Q           
                           q                                       e
13                         e            e                    e  e  h
 Q         e s s s s q     q  e  q      h  s ss s s s q  e   q     h   ssse e s
 |  .  |  .  |  .    |  .  |  .  |  .   |  .  |  .    |  .   |  .  |  .  |  . 
|1--------3--5-3-5-6|8-----6=====5-----|3---------3-5-3-----|1--3--0========0--|
|1--------R.--------|5--------5--6-----|5----35-6--------5--|3-----3---2023---2|
|2--------R.--------|------7-----------|---5----------------|------2===========|
|-------------------|7-----5=====------|--------------------|0-----------------|
|-------------------|------------8-----|3=============3-----|------0===========|
|1--------R.--------|5-----------------|--------------------|------------------|


 CII...............                                       CVII..............
17                  e                  Q
 Q  e  q  Q  q      H  ss e  e  e  e   h        e  q      q     E    se  e     
 |  .  |  .  |  .   |  .  |  .  |  .   |  .  |  .  |  .   |  .  |  .  |  . 
|------------------|0--00-0--0--1--3--|5========3--1-----|------------------|
|r--3--------3-----|2=================|2===========3-----|------------------|
|r--2--------2-----|2=================|2===========2-----|9-----7-----------|
|------4-----------|------------------|------------0-----|7-----7-----------|
|5========5========|0=================|0===========------|------8----87-----|
|------------------|------------------|------------------|9-----10-------10-|


                                       CV                 CIII.............. 
                    CIII.............. h 
                                       Q           q            h 
21                  e  ss e  e  e  e   h           e            s
 Q  e  q  e  q      H                  Q        e  e  e   q     hsss s s s s
 |  .  |  .  |  .   |  .  |  .  |  .   |  .  |  .  |  .   |  .  | .  |  . 
|r--0--------0-----|3--33-3--3--5--6--|8===========6-----|5-----3===========|
|r--2--------2-----|5=================|5========6--3--5--|6-----6653-5-6---5|
|r--2--------2-----|5=================|------------0-----|---------------3--|
|------2-----------|------------------|7===========------|3-----------------|
|0--------0--0-----|3=================|------------------|-----3============|
|------------------|------------------|5========R.-------|------------------|


 CI................                                         CVII
25                  e  ss e  e  s s s s s s s se  e  e  s s
 Q  e  q  e  q      H                   h            q      q  e  e  s ss s s s 
 |  .  |  .  |  .   |  .  |  .  |  .    |  .   |  .  |  .   |  .  |  .  |  . 
|r--1--------1-----|0--00-0--0--1-0-1-3|5-4-5-75--3--1--0-1|-------------------|
|r--1--------1-----|2==================|-------------3-----|-------------------|
|r--2--------2-----|2==================|-------------2-----|9-----7------------|
|------3-----------|-------------------|-------------0=========7--7------------|
|------------------|0==================|0============------|------8----78-7-8--|
|1--------1--1-----|-------------------|-------------------|---9-10--10------10|


                                        CV                 CIII...............
                                        h
29                  CIII............... Q           q            h
 e  s ss ss sq      e  s se  e  s s s s h           e            s
 h                  H                   Q        e  e  e   q     hsss s s s s
 |  .  |  .  |  .   |  .  |  .  |  .    |  .  |  .  |  .   |  .  | .  |  . 
|0--------0-10-----|3--3-33--3--5-3-5-6|8===========6-----|5-----3===========|
|2----02-3---2-----|5==================|5========6--3--5--|6-----6653-5-6---5|
|2--2--------2-----|5==================|------------------|---------------3--|
|------------------|-------------------|7===========5-----|3-----------------|
|0===========0-----|3==================|------------------|------3===========|
|------------------|-------------------|5========R.-------|------------------|


                                       CIII..............
33                                     h
 CI                                    Q
 e  s sss s sq                         Q
 H                  q     q     q      h        e  q      q     q     q  
 |  .  |  .  |  .   |  .  |  .  |  .   |  .  |  .  |  .   |  .  |  .  |  . 
|1-----------------|8-----7-----5-----|3===========3-----|5-----1-----3-----|
|1--4-31-----------|5-----5-----6-----|5========6--5-----|2-----3-----3-----|
|2------3-2-0------|------------------|5========---5-----|2-----3-----3-----|
|------------3-----|7-----------------|------------------|------------------|
|------------------|------7-----8-----|3===========3-----|0-----1-----------|
|1=================|5-----------------|------------------|------------3-----|


37                                                 CIII 
 h
 Q                                                        h           e  e 
 Q                                     Q           e  e   e  e  e   s q  
 h        e  q      q     q     q      H        e  q      q     q     q
 |  .  |  .  |  .   |  .  |  .  |  .   |  .  |  .  |  .   |  .  |  .  |  . 
|0===========0-----|1-----------0-----|1--------1--------|------------------|
|2========3--2-----|1-----3-----------|1-----------5--3--|3===========2=====|
|2========---2-----|2-----3-----3-----|2-----------3-----|------------2--0--|
|------------------|------------------|------------5-----|0--2--3---0-2=====|
|0===========0-----|------1-----------|------------------|1-----0-----0=====|
|------------------|1-----------3-----|1-----------3-----|------------------|


                    CV................ CIII...............       CI    CIII    
41                                     e  s ss s s sq
 Q  e  q  Q  q      q     q     q      h                   q     q     q
 |  .  |  .  |  .   |  .  |  .  |  .   |  .  |  .   |  .   |  .  |  .  |  . 
|------------------|8-----7-----5-----|3---------3-53-----|5-----1-----3-----|
|r--3--------3-----|5-----5-----6-----|5----35-6----5-----|2-----3-----3-----|
|r--2--------2-----|------------------|5--5---------5-----|2-----3-----3-----|
|------4-----4-----|7-----------------|-------------------|------------------|
|5========5========|------7-----8-----|3============3-----|0-----1-----------|
|------------------|5-----------------|-------------------|------------3-----|


                                                     CIII
45                                                          h           e  e 
 e                                      s s s se  e  e  e   e  e  e  s sq
 h  s ss s s  q      q     q     q      h            q      q     q     q
 |  .  |  .   |  .   |  .  |  .  |  .   |  .   |  .  |  .   |  .  |  .  |  . 
|0---------0-10-----|1-----------0-----|1-0-1-31--1--------|------------------|
|2----02-3----2-----|1-----3-----------|-------------5--3--|3===========2=====|
|2--2---------2-----|2-----3-----3-----|-------------3-----|------------2--0--|
|-------------------|------------------|-------------5-----|0--2--3--2-02=====|
|0============0-----|------1-----------|-------------------|1=====0=====0=====|
|-------------------|1-----------3-----|1------------3-----|------------------|


49
 e
 Q  s s s s s s q
 |  .   |   .   |  .   
|---------------------||
|3--2-0---------------||
|2------2-0-----------||
|0==========4-2-0-----||
|---------------------||
|---------------------||
                  Fine
comments
We did not receive enough feedback on this tab! Please rate:
print report bad tab
1 2 3 4 5
I want to post or [tab]
guest
You may want to rate the tab now too:
select rating
Please do not post tabs as comments. Select "correction" instead!